  0
SECTION
  2
HEADER
  9
$ACADVER
  1
AC1015
  9
$ACADMAINTVER
 70
    20
  9
$DWGCODEPAGE
  3
ANSI_936
  9
$INSBASE
 10
0.0
 20
0.0
 30
0.0
  9
$EXTMIN
 10
-1243.94131757918
 20
15.76600961792999
 30
-0.0000000000000001
  9
$EXTMAX
 10
1161.959319193902
 20
328.2321534615499
 30
0.0000000000000167
  9
$LIMMIN
 10
-0.5
 20
-0.5
  9
$LIMMAX
 10
5.0
 20
5.0
  9
$ORTHOMODE
 70
     0
  9
$REGENMODE
 70
     1
  9
$FILLMODE
 70
     1
  9
$QTEXTMODE
 70
     0
  9
$MIRRTEXT
 70
     1
  9
$LTSCALE
 40
1.0
  9
$ATTMODE
 70
     1
  9
$TEXTSIZE
 40
0.2
  9
$TRACEWID
 40
0.05
  9
$TEXTSTYLE
  7
Standard
  9
$CLAYER
  8
0
  9
$CELTYPE
  6
ByLayer
  9
$CECOLOR
 62
   256
  9
$CELTSCALE
 40
1.0
  9
$DISPSILH
 70
     0
  9
$DIMSCALE
 40
1.0
  9
$DIMASZ
 40
0.18
  9
$DIMEXO
 40
0.0625
  9
$DIMDLI
 40
0.38
  9
$DIMRND
 40
0.0
  9
$DIMDLE
 40
0.0
  9
$DIMEXE
 40
0.18
  9
$DIMTP
 40
0.0
  9
$DIMTM
 40
0.0
  9
$DIMTXT
 40
0.18
  9
$DIMCEN
 40
0.09
  9
$DIMTSZ
 40
0.0
  9
$DIMTOL
 70
     0
  9
$DIMLIM
 70
     0
  9
$DIMTIH
 70
     1
  9
$DIMTOH
 70
     1
  9
$DIMSE1
 70
     0
  9
$DIMSE2
 70
     0
  9
$DIMTAD
 70
     0
  9
$DIMZIN
 70
     0
  9
$DIMBLK
  1

  9
$DIMASO
 70
     1
  9
$DIMSHO
 70
     1
  9
$DIMPOST
  1

  9
$DIMAPOST
  1

  9
$DIMALT
 70
     0
  9
$DIMALTD
 70
     2
  9
$DIMALTF
 40
25.4
  9
$DIMLFAC
 40
1.0
  9
$DIMTOFL
 70
     0
  9
$DIMTVP
 40
0.0
  9
$DIMTIX
 70
     0
  9
$DIMSOXD
 70
     0
  9
$DIMSAH
 70
     0
  9
$DIMBLK1
  1

  9
$DIMBLK2
  1

  9
$DIMSTYLE
  2
Standard
  9
$DIMCLRD
 70
     0
  9
$DIMCLRE
 70
     0
  9
$DIMCLRT
 70
     0
  9
$DIMTFAC
 40
1.0
  9
$DIMGAP
 40
0.09
  9
$DIMJUST
 70
     0
  9
$DIMSD1
 70
     0
  9
$DIMSD2
 70
     0
  9
$DIMTOLJ
 70
     1
  9
$DIMTZIN
 70
     0
  9
$DIMALTZ
 70
     0
  9
$DIMALTTZ
 70
     0
  9
$DIMUPT
 70
     0
  9
$DIMDEC
 70
     4
  9
$DIMTDEC
 70
     4
  9
$DIMALTU
 70
     2
  9
$DIMALTTD
 70
     2
  9
$DIMTXSTY
  7
Standard
  9
$DIMAUNIT
 70
     0
  9
$DIMADEC
 70
     0
  9
$DIMALTRND
 40
0.0
  9
$DIMAZIN
 70
     0
  9
$DIMDSEP
 70
    46
  9
$DIMATFIT
 70
     3
  9
$DIMFRAC
 70
     0
  9
$DIMLDRBLK
  1

  9
$DIMLUNIT
 70
     2
  9
$DIMLWD
 70
    -2
  9
$DIMLWE
 70
    -2
  9
$DIMTMOVE
 70
     0
  9
$LUNITS
 70
     2
  9
$LUPREC
 70
     4
  9
$SKETCHINC
 40
0.1
  9
$FILLETRAD
 40
0.5
  9
$AUNITS
 70
     0
  9
$AUPREC
 70
     0
  9
$MENU
  1
.
  9
$ELEVATION
 40
0.0
  9
$PELEVATION
 40
0.0
  9
$THICKNESS
 40
0.0
  9
$LIMCHECK
 70
     0
  9
$CHAMFERA
 40
0.0
  9
$CHAMFERB
 40
0.0
  9
$CHAMFERC
 40
0.0
  9
$CHAMFERD
 40
0.0
  9
$SKPOLY
 70
     0
  9
$TDCREATE
 40
2458905.377719908
  9
$TDUCREATE
 40
2458905.044391551
  9
$TDUPDATE
 40
2460063.565057871
  9
$TDUUPDATE
 40
2460063.231724537
  9
$TDINDWG
 40
0.0306117130
  9
$TDUSRTIMER
 40
0.0306115625
  9
$USRTIMER
 70
     1
  9
$ANGBASE
 50
0.0
  9
$ANGDIR
 70
     0
  9
$PDMODE
 70
     0
  9
$PDSIZE
 40
0.0
  9
$PLINEWID
 40
0.0
  9
$SPLFRAME
 70
     0
  9
$SPLINETYPE
 70
     6
  9
$SPLINESEGS
 70
     8
  9
$HANDSEED
  5
135E
  9
$SURFTAB1
 70
     6
  9
$SURFTAB2
 70
     6
  9
$SURFTYPE
 70
     6
  9
$SURFU
 70
     6
  9
$SURFV
 70
     6
  9
$UCSBASE
  2

  9
$UCSNAME
  2

  9
$UCSORG
 10
0.0
 20
0.0
 30
0.0
  9
$UCSXDIR
 10
1.0
 20
0.0
 30
0.0
  9
$UCSYDIR
 10
0.0
 20
1.0
 30
0.0
  9
$UCSORTHOREF
  2

  9
$UCSORTHOVIEW
 70
     0
  9
$UCSORGTOP
 10
0.0
 20
0.0
 30
0.0
  9
$UCSORGBOTTOM
 10
0.0
 20
0.0
 30
0.0
  9
$UCSORGLEFT
 10
0.0
 20
0.0
 30
0.0
  9
$UCSORGRIGHT
 10
0.0
 20
0.0
 30
0.0
  9
$UCSORGFRONT
 10
0.0
 20
0.0
 30
0.0
  9
$UCSORGBACK
 10
0.0
 20
0.0
 30
0.0
  9
$PUCSBASE
  2

  9
$PUCSNAME
  2

  9
$PUCSORG
 10
0.0
 20
0.0
 30
0.0
  9
$PUCSXDIR
 10
1.0
 20
0.0
 30
0.0
  9
$PUCSYDIR
 10
0.0
 20
1.0
 30
0.0
  9
$PUCSORTHOREF
  2

  9
$PUCSORTHOVIEW
 70
     0
  9
$PUCSORGTOP
 10
0.0
 20
0.0
 30
0.0
  9
$PUCSORGBOTTOM
 10
0.0
 20
0.0
 30
0.0
  9
$PUCSORGLEFT
 10
0.0
 20
0.0
 30
0.0
  9
$PUCSORGRIGHT
 10
0.0
 20
0.0
 30
0.0
  9
$PUCSORGFRONT
 10
0.0
 20
0.0
 30
0.0
  9
$PUCSORGBACK
 10
0.0
 20
0.0
 30
0.0
  9
$USERI1
 70
     0
  9
$USERI2
 70
     0
  9
$USERI3
 70
     0
  9
$USERI4
 70
     0
  9
$USERI5
 70
     0
  9
$USERR1
 40
0.0
  9
$USERR2
 40
0.0
  9
$USERR3
 40
0.0
  9
$USERR4
 40
0.0
  9
$USERR5
 40
0.0
  9
$WORLDVIEW
 70
     1
  9
$SHADEDGE
 70
     3
  9
$SHADEDIF
 70
    70
  9
$TILEMODE
 70
     1
  9
$MAXACTVP
 70
    64
  9
$PINSBASE
 10
0.0
 20
0.0
 30
0.0
  9
$PLIMCHECK
 70
     0
  9
$PEXTMIN
 10
-0.5
 20
-0.5
 30
-0.5
  9
$PEXTMAX
 10
5.0
 20
5.0
 30
5.0
  9
$PLIMMIN
 10
-0.5
 20
-0.5
  9
$PLIMMAX
 10
5.0
 20
5.0
  9
$UNITMODE
 70
     0
  9
$VISRETAIN
 70
     1
  9
$PLINEGEN
 70
     0
  9
$PSLTSCALE
 70
     1
  9
$TREEDEPTH
 70
  3020
  9
$CMLSTYLE
  2
Standard
  9
$CMLJUST
 70
     0
  9
$CMLSCALE
 40
1.0
  9
$PROXYGRAPHICS
 70
     1
  9
$MEASUREMENT
 70
     1
  9
$CELWEIGHT
370
    70
  9
$ENDCAPS
280
     0
  9
$JOINSTYLE
280
     0
  9
$LWDISPLAY
290
     0
  9
$INSUNITS
 70
     4
  9
$HYPERLINKBASE
  1

  9
$STYLESHEET
  1

  9
$XEDIT
290
     1
  9
$CEPSNTYPE
380
     0
  9
$PSTYLEMODE
290
     1
  9
$FINGERPRINTGUID
  2
{6125C981-F228-481F-BAB0-5574D96D695B}
  9
$VERSIONGUID
  2
{3F94574A-2200-A74D-91E3-9758467868E5}
  9
$EXTNAMES
290
     1
  9
$PSVPSCALE
 40
0.0
  9
$OLESTARTUP
290
     0
  0
ENDSEC
  0
SECTION
  2
CLASSES
  0
CLASS
  1
ACDBDICTIONARYWDFLT
  2
AcDbDictionaryWithDefault
  3
ObjectDBX Classes
 90
        0
280
     0
281
     0
  0
CLASS
  1
VISUALSTYLE
  2
AcDbVisualStyle
  3
ObjectDBX Classes
 90
     4095
280
     0
281
     0
  0
CLASS
  1
MATERIAL
  2
AcDbMaterial
  3
ObjectDBX Classes
 90
     1153
280
     0
281
     0
  0
CLASS
  1
SCALE
  2
AcDbScale
  3
ObjectDBX Classes
 90
     1153
280
     0
281
     0
  0
CLASS
  1
TABLESTYLE
  2
AcDbTableStyle
  3
ObjectDBX Classes
 90
     4095
280
     0
281
     0
  0
CLASS
  1
MLEADERSTYLE
  2
AcDbMLeaderStyle
  3
ACDB_MLEADERSTYLE_CLASS
 90
     4095
280
     0
281
     0
  0
CLASS
  1
SUN
  2
AcDbSun
  3
SCENEOE
 90
     1153
280
     0
281
     0
  0
CLASS
  1
DICTIONARYVAR
  2
AcDbDictionaryVar
  3
ObjectDBX Classes
 90
        0
280
     0
281
     0
  0
CLASS
  1
CELLSTYLEMAP
  2
AcDbCellStyleMap
  3
ObjectDBX Classes
 90
     1152
280
     0
281
     0
  0
CLASS
  1
DIMASSOC
  2
AcDbDimAssoc
  3
"AcDbDimAssoc|Product Desc:     AcDim ARX App For Dimension|Company:          Autodesk, Inc.|WEB Address:      www.autodesk.com"
 90
    32768
280
     0
281
     0
  0
CLASS
  1
SORTENTSTABLE
  2
AcDbSortentsTable
  3
ObjectDBX Classes
 90
        0
280
     0
281
     0
  0
CLASS
  1
ACDBPLACEHOLDER
  2
AcDbPlaceHolder
  3
ObjectDBX Classes
 90
        0
280
     0
281
     0
  0
CLASS
  1
LAYOUT
  2
AcDbLayout
  3
ObjectDBX Classes
 90
        0
280
     0
281
     0
  0
CLASS
  1
RASTERVARIABLES
  2
AcDbRasterVariables
  3
ISM
 90
        0
280
     0
281
     0
  0
CLASS
  1
ACDBSECTIONVIEWSTYLE
  2
AcDbSectionViewStyle
  3
ObjectDBX Classes
 90
     1025
280
     0
281
     0
  0
CLASS
  1
ACDBDETAILVIEWSTYLE
  2
AcDbDetailViewStyle
  3
ObjectDBX Classes
 90
     1025
280
     0
281
     0
  0
ENDSEC
  0
SECTION
  2
TABLES
  0
TABLE
  2
VPORT
  5
8
330
0
100
AcDbSymbolTable
 70
    16
  0
VPORT
  5
29
330
8
100
AcDbSymbolTableRecord
100
AcDbViewportTableRecord
  2
*Active
 70
     0
 10
0.0
 20
0.0
 11
1.0
 21
1.0
 12
186.1389600620464
 22
-96.2502134539152
 13
0.0
 23
0.0
 14
0.5
 24
0.5
 15
0.5
 25
0.5
 16
0.0
 26
0.0
 36
1.0
 17
0.0
 27
0.0
 37
0.0
 40
1796.131992594242
 41
2.369369369369369
 42
50.0
 43
336.0737869098446
 44
-336.0737869098446
 50
0.0
 51
0.0
 71
     0
 72
   100
 73
     1
 74
     3
 75
     0
 76
     0
 77
     0
 78
     0
281
     0
 65
     1
110
0.0
120
0.0
130
0.0
111
1.0
121
0.0
131
0.0
112
0.0
122
1.0
132
0.0
 79
     0
146
0.0
1001
ACAD_NAV_VCDISPLAY
1070
     3
  0
VPORT
  5
205
330
8
100
AcDbSymbolTableRecord
100
AcDbViewportTableRecord
  2
L1
 70
     0
 10
0.0
 20
0.0
 11
1.0
 21
1.0
 12
149.7774045020463
 22
70.30818980218281
 13
0.0
 23
0.0
 14
0.5
 24
0.5
 15
0.5
 25
0.5
 16
0.0
 26
0.0
 36
1.0
 17
0.0
 27
0.0
 37
0.0
 40
254.0
 41
0.069908491163988
 42
50.0
 43
336.0737869098446
 44
-336.0737869098446
 50
0.0
 51
0.0
 71
     0
 72
   100
 73
     1
 74
     3
 75
     0
 76
     0
 77
     0
 78
     0
281
     0
 65
     1
110
0.0
120
0.0
130
0.0
111
1.0
121
0.0
131
0.0
112
0.0
122
1.0
132
0.0
 79
     0
146
0.0
  0
VPORT
  5
206
330
8
100
AcDbSymbolTableRecord
100
AcDbViewportTableRecord
  2
L2
 70
     0
 10
0.0
 20
0.0
 11
0.5
 21
1.0
 12
0.0
 22
0.0
 13
0.0
 23
0.0
 14
0.5
 24
0.5
 15
0.5
 25
0.5
 16
0.0
 26
-1.0
 36
0.0
 17
0.0
 27
0.0
 37
0.0
 40
1319.822715367484
 41
0.0134538953973897
 42
50.0
 43
672.020833010406
 44
-672.020833010406
 50
0.0
 51
0.0
 71
     0
 72
   100
 73
     1
 74
     3
 75
     0
 76
     0
 77
     0
 78
     0
281
     0
 65
     1
110
0.0
120
0.0
130
0.0
111
1.0
121
0.0
131
0.0
112
0.0
122
1.0
132
0.0
 79
     0
146
0.0
  0
VPORT
  5
207
330
8
100
AcDbSymbolTableRecord
100
AcDbViewportTableRecord
  2
L2
 70
     0
 10
0.5
 20
0.0
 11
1.0
 21
1.0
 12
0.0
 22
0.0
 13
0.0
 23
0.0
 14
0.5
 24
0.5
 15
0.5
 25
0.5
 16
1.0
 26
0.0
 36
0.0
 17
0.0
 27
0.0
 37
0.0
 40
1319.822715367484
 41
0.0134538953973897
 42
50.0
 43
672.020833010406
 44
-672.020833010406
 50
0.0
 51
0.0
 71
     0
 72
   100
 73
     1
 74
     3
 75
     0
 76
     0
 77
     0
 78
     0
281
     0
 65
     1
110
0.0
120
0.0
130
0.0
111
1.0
121
0.0
131
0.0
112
0.0
122
1.0
132
0.0
 79
     0
146
0.0
  0
VPORT
  5
208
330
8
100
AcDbSymbolTableRecord
100
AcDbViewportTableRecord
  2
L3
 70
     0
 10
0.0
 20
0.5
 11
1.0
 21
1.0
 12
149.7774045020463
 22
70.30818980218281
 13
0.0
 23
0.0
 14
0.5
 24
0.5
 15
0.5
 25
0.5
 16
0.0
 26
0.0
 36
1.0
 17
0.0
 27
0.0
 37
0.0
 40
254.0
 41
0.069908491163988
 42
50.0
 43
336.0737869098446
 44
-336.0737869098446
 50
0.0
 51
0.0
 71
     0
 72
   100
 73
     1
 74
     3
 75
     0
 76
     0
 77
     0
 78
     0
281
     0
 65
     1
110
0.0
120
0.0
130
0.0
111
1.0
121
0.0
131
0.0
112
0.0
122
1.0
132
0.0
 79
     0
146
0.0
  0
VPORT
  5
209
330
8
100
AcDbSymbolTableRecord
100
AcDbViewportTableRecord
  2
L3
 70
     0
 10
0.0
 20
0.0
 11
1.0
 21
0.5
 12
0.0
 22
0.0
 13
0.0
 23
0.0
 14
0.5
 24
0.5
 15
0.5
 25
0.5
 16
0.0
 26
-1.0
 36
0.0
 17
0.0
 27
0.0
 37
0.0
 40
1319.822715367484
 41
0.0134538953973897
 42
50.0
 43
672.020833010406
 44
-672.020833010406
 50
0.0
 51
0.0
 71
     0
 72
   100
 73
     1
 74
     3
 75
     0
 76
     0
 77
     0
 78
     0
281
     0
 65
     1
110
0.0
120
0.0
130
0.0
111
1.0
121
0.0
131
0.0
112
0.0
122
1.0
132
0.0
 79
     0
146
0.0
  0
VPORT
  5
20A
330
8
100
AcDbSymbolTableRecord
100
AcDbViewportTableRecord
  2
L4
 70
     0
 10
0.0
 20
0.5
 11
0.5
 21
1.0
 12
149.7774045020463
 22
70.30818980218281
 13
0.0
 23
0.0
 14
0.5
 24
0.5
 15
0.5
 25
0.5
 16
0.0
 26
0.0
 36
1.0
 17
0.0
 27
0.0
 37
0.0
 40
254.0
 41
0.069908491163988
 42
50.0
 43
336.0737869098446
 44
-336.0737869098446
 50
0.0
 51
0.0
 71
     0
 72
   100
 73
     1
 74
     3
 75
     0
 76
     0
 77
     0
 78
     0
281
     0
 65
     1
110
0.0
120
0.0
130
0.0
111
1.0
121
0.0
131
0.0
112
0.0
122
1.0
132
0.0
 79
     0
146
0.0
  0
VPORT
  5
20B
330
8
100
AcDbSymbolTableRecord
100
AcDbViewportTableRecord
  2
L4
 70
     0
 10
0.0
 20
0.0
 11
0.5
 21
0.5
 12
0.0
 22
0.0
 13
0.0
 23
0.0
 14
0.5
 24
0.5
 15
0.5
 25
0.5
 16
0.0
 26
-1.0
 36
0.0
 17
0.0
 27
0.0
 37
0.0
 40
1319.822715367484
 41
0.0134538953973897
 42
50.0
 43
672.020833010406
 44
-672.020833010406
 50
0.0
 51
0.0
 71
     0
 72
   100
 73
     1
 74
     3
 75
     0
 76
     0
 77
     0
 78
     0
281
     0
 65
     1
110
0.0
120
0.0
130
0.0
111
1.0
121
0.0
131
0.0
112
0.0
122
1.0
132
0.0
 79
     0
146
0.0
  0
VPORT
  5
20C
330
8
100
AcDbSymbolTableRecord
100
AcDbViewportTableRecord
  2
L4
 70
     0
 10
0.5
 20
0.0
 11
1.0
 21
0.5
 12
0.0
 22
0.0
 13
0.0
 23
0.0
 14
0.5
 24
0.5
 15
0.5
 25
0.5
 16
1.0
 26
0.0
 36
0.0
 17
0.0
 27
0.0
 37
0.0
 40
1319.822715367484
 41
0.0134538953973897
 42
50.0
 43
672.020833010406
 44
-672.020833010406
 50
0.0
 51
0.0
 71
     0
 72
   100
 73
     1
 74
     3
 75
     0
 76
     0
 77
     0
 78
     0
281
     0
 65
     1
110
0.0
120
0.0
130
0.0
111
1.0
121
0.0
131
0.0
112
0.0
122
1.0
132
0.0
 79
     0
146
0.0
  0
VPORT
  5
20D
330
8
100
AcDbSymbolTableRecord
100
AcDbViewportTableRecord
  2
L4
 70
     0
 10
0.5
 20
0.5
 11
1.0
 21
1.0
 12
0.0
 22
0.0
 13
0.0
 23
0.0
 14
0.5
 24
0.5
 15
0.5
 25
0.5
 16
0.577350269189626
 26
-0.577350269189626
 36
0.577350269189626
 17
0.0
 27
0.0
 37
0.0
 40
1285.020866083941
 41
0.0138182633638986
 42
50.0
 43
667.1414067255758
 44
-667.1414067255758
 50
0.0
 51
0.0
 71
     0
 72
   100
 73
     1
 74
     3
 75
     0
 76
     0
 77
     0
 78
     0
281
     0
 65
     1
110
0.0
120
0.0
130
0.0
111
1.0
121
0.0
131
0.0
112
0.0
122
1.0
132
0.0
 79
     0
146
0.0
  0
VPORT
  5
20E
330
8
100
AcDbSymbolTableRecord
100
AcDbViewportTableRecord
  2
L6
 70
     0
 10
0.0
 20
0.5
 11
0.3333333333333334
 21
1.0
 12
0.0
 22
0.0
 13
0.0
 23
0.0
 14
0.5
 24
0.5
 15
0.5
 25
0.5
 16
0.7188730927569435
 26
-0.5850486126764433
 36
0.3754192287502549
 17
0.0
 27
0.0
 37
0.0
 40
1357.434191666423
 41
0.0130811179390246
 42
50.0
 43
701.8394773188865
 44
-701.8394773188865
 50
0.0
 51
0.0
 71
     0
 72
   100
 73
     1
 74
     3
 75
     0
 76
     0
 77
     0
 78
     0
281
     0
 65
     1
110
0.0
120
0.0
130
0.0
111
1.0
121
0.0
131
0.0
112
0.0
122
1.0
132
0.0
 79
     0
146
0.0
  0
VPORT
  5
20F
330
8
100
AcDbSymbolTableRecord
100
AcDbViewportTableRecord
  2
L6
 70
     0
 10
0.0
 20
0.0
 11
0.3333333333333334
 21
0.5
 12
0.0
 22
0.0
 13
0.0
 23
0.0
 14
0.5
 24
0.5
 15
0.5
 25
0.5
 16
-1.0
 26
0.0
 36
0.0
 17
0.0
 27
0.0
 37
0.0
 40
1319.822715367484
 41
0.0134538953973897
 42
50.0
 43
672.020833010406
 44
-672.020833010406
 50
0.0
 51
0.0
 71
     0
 72
   100
 73
     1
 74
     3
 75
     0
 76
     0
 77
     0
 78
     0
281
     0
 65
     1
110
0.0
120
0.0
130
0.0
111
1.0
121
0.0
131
0.0
112
0.0
122
1.0
132
0.0
 79
     0
146
0.0
  0
VPORT
  5
210
330
8
100
AcDbSymbolTableRecord
100
AcDbViewportTableRecord
  2
L6
 70
     0
 10
0.3333333333333334
 20
0.5
 11
0.6666666666666666
 21
1.0
 12
149.7774045020463
 22
70.30818980218281
 13
0.0
 23
0.0
 14
0.5
 24
0.5
 15
0.5
 25
0.5
 16
0.0
 26
0.0
 36
1.0
 17
0.0
 27
0.0
 37
0.0
 40
254.0
 41
0.069908491163988
 42
50.0
 43
336.0737869098446
 44
-336.0737869098446
 50
0.0
 51
0.0
 71
     0
 72
   100
 73
     1
 74
     3
 75
     0
 76
     0
 77
     0
 78
     0
281
     0
 65
     1
110
0.0
120
0.0
130
0.0
111
1.0
121
0.0
131
0.0
112
0.0
122
1.0
132
0.0
 79
     0
146
0.0
  0
VPORT
  5
211
330
8
100
AcDbSymbolTableRecord
100
AcDbViewportTableRecord
  2
L6
 70
     0
 10
0.3333333333333334
 20
0.0
 11
0.6666666666666666
 21
0.5
 12
0.0
 22
0.0
 13
0.0
 23
0.0
 14
0.5
 24
0.5
 15
0.5
 25
0.5
 16
0.0
 26
-1.0
 36
0.0
 17
0.0
 27
0.0
 37
0.0
 40
1319.822715367484
 41
0.0134538953973897
 42
50.0
 43
672.020833010406
 44
-672.020833010406
 50
0.0
 51
0.0
 71
     0
 72
   100
 73
     1
 74
     3
 75
     0
 76
     0
 77
     0
 78
     0
281
     0
 65
     1
110
0.0
120
0.0
130
0.0
111
1.0
121
0.0
131
0.0
112
0.0
122
1.0
132
0.0
 79
     0
146
0.0
  0
VPORT
  5
212
330
8
100
AcDbSymbolTableRecord
100
AcDbViewportTableRecord
  2
L6
 70
     0
 10
0.6666666666666666
 20
0.5
 11
1.0
 21
1.0
 12
0.0
 22
0.0
 13
0.0
 23
0.0
 14
0.5
 24
0.5
 15
0.5
 25
0.5
 16
0.577350269189626
 26
-0.577350269189626
 36
0.577350269189626
 17
0.0
 27
0.0
 37
0.0
 40
1285.020866083941
 41
0.0138182633638986
 42
50.0
 43
667.1414067255758
 44
-667.1414067255758
 50
0.0
 51
0.0
 71
     0
 72
   100
 73
     1
 74
     3
 75
     0
 76
     0
 77
     0
 78
     0
281
     0
 65
     1
110
0.0
120
0.0
130
0.0
111
1.0
121
0.0
131
0.0
112
0.0
122
1.0
132
0.0
 79
     0
146
0.0
  0
VPORT
  5
213
330
8
100
AcDbSymbolTableRecord
100
AcDbViewportTableRecord
  2
L6
 70
     0
 10
0.6666666666666666
 20
0.0
 11
1.0
 21
0.5
 12
0.0
 22
0.0
 13
0.0
 23
0.0
 14
0.5
 24
0.5
 15
0.5
 25
0.5
 16
1.0
 26
0.0
 36
0.0
 17
0.0
 27
0.0
 37
0.0
 40
1319.822715367484
 41
0.0134538953973897
 42
50.0
 43
672.020833010406
 44
-672.020833010406
 50
0.0
 51
0.0
 71
     0
 72
   100
 73
     1
 74
     3
 75
     0
 76
     0
 77
     0
 78
     0
281
     0
 65
     1
110
0.0
120
0.0
130
0.0
111
1.0
121
0.0
131
0.0
112
0.0
122
1.0
132
0.0
 79
     0
146
0.0
  0
ENDTAB
  0
TABLE
  2
LTYPE
  5
5
330
0
100
AcDbSymbolTable
 70
     6
  0
LTYPE
  5
14
330
5
100
AcDbSymbolTableRecord
100
AcDbLinetypeTableRecord
  2
ByBlock
 70
     0
  3

 72
    65
 73
     0
 40
0.0
  0
LTYPE
  5
15
330
5
100
AcDbSymbolTableRecord
100
AcDbLinetypeTableRecord
  2
ByLayer
 70
     0
  3

 72
    65
 73
     0
 40
0.0
  0
LTYPE
  5
16
330
5
100
AcDbSymbolTableRecord
100
AcDbLinetypeTableRecord
  2
Continuous
 70
     0
  3
Solid line
 72
    65
 73
     0
 40
0.0
  0
LTYPE
  5
6E
330
5
100
AcDbSymbolTableRecord
100
AcDbLinetypeTableRecord
  2
CENTER
 70
     0
  3
____ _ ____ _ ____ _ ____
 72
    65
 73
     4
 40
47.4
 49
22.0
 74
     4
 75
     0
340
0
 46
0.0
 50
0.0
 44
0.0
 45
0.0
 49
-8.5
 74
     4
 75
     0
340
0
 46
0.0
 50
0.0
 44
0.0
 45
0.0
 49
8.5
 74
     4
 75
     0
340
0
 46
0.0
 50
0.0
 44
0.0
 45
0.0
 49
-8.5
 74
     4
 75
     0
340
0
 46
0.0
 50
0.0
 44
0.0
 45
0.0
  0
LTYPE
  5
6F
330
5
100
AcDbSymbolTableRecord
100
AcDbLinetypeTableRecord
  2
DASHDOT
 70
     0
  3
_._._._._._._._._._._._._._._._.
 72
    65
 73
     4
 40
70.0
 49
31.0
 74
     4
 75
     0
340
0
 46
0.0
 50
0.0
 44
0.0
 45
0.0
 49
-13.0
 74
     4
 75
     0
340
0
 46
0.0
 50
0.0
 44
0.0
 45
0.0
 49
13.0
 74
     4
 75
     0
340
0
 46
0.0
 50
0.0
 44
0.0
 45
0.0
 49
-13.0
 74
     4
 75
     0
340
0
 46
0.0
 50
0.0
 44
0.0
 45
0.0
  0
LTYPE
  5
70
330
5
100
AcDbSymbolTableRecord
100
AcDbLinetypeTableRecord
  2
DASHED
 70
     0
  3
__ __ __ __ __ __ __ __ __
 72
    65
 73
     2
 40
25.72
 49
12.86
 74
     4
 75
     0
340
0
 46
0.0
 50
0.0
 44
0.0
 45
0.0
 49
-12.86
 74
     4
 75
     0
340
0
 46
0.0
 50
0.0
 44
0.0
 45
0.0
  0
LTYPE
  5
71
330
5
100
AcDbSymbolTableRecord
100
AcDbLinetypeTableRecord
  2
DOT
 70
     0
  3
.........................
 72
    65
 73
     2
 40
10.0
 49
0.0
 74
     4
 75
     0
340
0
 46
0.0
 50
0.0
 44
0.0
 45
0.0
 49
-10.0
 74
     4
 75
     0
340
0
 46
0.0
 50
0.0
 44
0.0
 45
0.0
  0
LTYPE
  5
72
330
5
100
AcDbSymbolTableRecord
100
AcDbLinetypeTableRecord
  2
PHANTOM
 70
     0
  3
____ _ _ ____ _ _ _____ _ _ ____
 72
    65
 73
     6
 40
50.5
 49
18.0
 74
     4
 75
     0
340
0
 46
0.0
 50
0.0
 44
0.0
 45
0.0
 49
-6.5
 74
     4
 75
     0
340
0
 46
0.0
 50
0.0
 44
0.0
 45
0.0
 49
6.5
 74
     4
 75
     0
340
0
 46
0.0
 50
0.0
 44
0.0
 45
0.0
 49
-6.5
 74
     4
 75
     0
340
0
 46
0.0
 50
0.0
 44
0.0
 45
0.0
 49
6.5
 74
     4
 75
     0
340
0
 46
0.0
 50
0.0
 44
0.0
 45
0.0
 49
-6.5
 74
     4
 75
     0
340
0
 46
0.0
 50
0.0
 44
0.0
 45
0.0
  0
ENDTAB
  0
TABLE
  2
LAYER
  5
2
102
{ACAD_XDICTIONARY
360
12E1
102
}
330
0
100
AcDbSymbolTable
 70
     4
  0
LAYER
  5
10
330
2
100
AcDbSymbolTableRecord
100
AcDbLayerTableRecord
  2
0
 70
     0
 62
     7
  6
Continuous
370
    -3
390
F
  0
LAYER
  5
74
330
2
100
AcDbSymbolTableRecord
100
AcDbLayerTableRecord
  2
1
 70
     0
 62
     7
  6
Continuous
370
    -3
390
F
  0
LAYER
  5
284
330
2
100
AcDbSymbolTableRecord
100
AcDbLayerTableRecord
  2
2
 70
     0
 62
     7
  6
Continuous
370
    -3
390
F
  0
LAYER
  5
5E5
330
2
100
AcDbSymbolTableRecord
100
AcDbLayerTableRecord
  2
Defpoints
 70
     0
 62
     7
  6
Continuous
290
     0
370
    -3
390
F
  0
ENDTAB
  0
TABLE
  2
STYLE
  5
3
330
0
100
AcDbSymbolTable
 70
     2
  0
STYLE
  5
11
330
3
100
AcDbSymbolTableRecord
100
AcDbTextStyleTableRecord
  2
Standard
 70
     0
 40
0.0
 41
1.0
 50
0.0
 71
     0
 42
0.2
  3
txt
  4

  0
STYLE
  5
285
330
3
100
AcDbSymbolTableRecord
100
AcDbTextStyleTableRecord
  2
Arial
 70
     0
 40
0.0
 41
1.0
 50
0.0
 71
     0
 42
0.2
  3
arial.ttf
  4

1001
ACAD
1000
Arial
1071
        0
  0
ENDTAB
  0
TABLE
  2
VIEW
  5
6
330
0
100
AcDbSymbolTable
 70
     2
  0
ENDTAB
  0
TABLE
  2
UCS
  5
7
330
0
100
AcDbSymbolTable
 70
     0
  0
ENDTAB
  0
TABLE
  2
APPID
  5
9
330
0
100
AcDbSymbolTable
 70
     5
  0
APPID
  5
12
330
9
100
AcDbSymbolTableRecord
100
AcDbRegAppTableRecord
  2
ACAD
 70
     0
  0
APPID
  5
253
330
9
100
AcDbSymbolTableRecord
100
AcDbRegAppTableRecord
  2
ACAD_MLEADERVER
 70
     0
  0
APPID
  5
286
330
9
100
AcDbSymbolTableRecord
100
AcDbRegAppTableRecord
  2
ACAD_DSTYLE_DIMBREAK
 70
     0
  0
APPID
  5
B7C
330
9
100
AcDbSymbolTableRecord
100
AcDbRegAppTableRecord
  2
ACAD_OBJECT_CHANGE_GUID
 70
     0
  0
APPID
  5
12F9
330
9
100
AcDbSymbolTableRecord
100
AcDbRegAppTableRecord
  2
ACAD_NAV_VCDISPLAY
 70
     0
  0
ENDTAB
  0
TABLE
  2
DIMSTYLE
  5
A
330
0
100
AcDbSymbolTable
 70
     1
100
AcDbDimStyleTable
 71
     1
340
27
  0
DIMSTYLE
105
27
330
A
100
AcDbSymbolTableRecord
100
AcDbDimStyleTableRecord
  2
Standard
 70
     0
340
11
  0
ENDTAB
  0
TABLE
  2
BLOCK_RECORD
  5
1
330
0
100
AcDbSymbolTable
 70
     5
  0
BLOCK_RECORD
  5
1F
102
{ACAD_XDICTIONARY
360
7A4
102
}
330
1
100
AcDbSymbolTableRecord
100
AcDbBlockTableRecord
  2
*MODEL_SPACE
340
22
  0
BLOCK_RECORD
  5
1B
330
1
100
AcDbSymbolTableRecord
100
AcDbBlockTableRecord
  2
*PAPER_SPACE
340
1E
  0
BLOCK_RECORD
  5
23
330
1
100
AcDbSymbolTableRecord
100
AcDbBlockTableRecord
  2
*PAPER_SPACE0
340
26
  0
BLOCK_RECORD
  5
260
330
1
100
AcDbSymbolTableRecord
100
AcDbBlockTableRecord
  2
_U0
340
0
  0
BLOCK_RECORD
  5
269
330
1
100
AcDbSymbolTableRecord
100
AcDbBlockTableRecord
  2
_U1
340
0
  0
BLOCK_RECORD
  5
272
330
1
100
AcDbSymbolTableRecord
100
AcDbBlockTableRecord
  2
_U2
340
0
  0
BLOCK_RECORD
  5
27B
330
1
100
AcDbSymbolTableRecord
100
AcDbBlockTableRecord
  2
_U3
340
0
  0
ENDTAB
  0
ENDSEC
  0
SECTION
  2
BLOCKS
  0
BLOCK
  5
20
330
1F
100
AcDbEntity
  8
0
100
AcDbBlockBegin
  2
*MODEL_SPACE
 70
     0
 10
0.0
 20
0.0
 30
0.0
  3
*MODEL_SPACE
  1

  0
ENDBLK
  5
21
330
1F
100
AcDbEntity
  8
0
100
AcDbBlockEnd
  0
BLOCK
  5
1C
330
1B
100
AcDbEntity
 67
     1
  8
0
100
AcDbBlockBegin
  2
*PAPER_SPACE
 70
     0
 10
0.0
 20
0.0
 30
0.0
  3
*PAPER_SPACE
  1

  0
ENDBLK
  5
1D
330
1B
100
AcDbEntity
 67
     1
  8
0
100
AcDbBlockEnd
  0
BLOCK
  5
24
330
23
100
AcDbEntity
 67
     1
  8
0
100
AcDbBlockBegin
  2
*PAPER_SPACE0
 70
     0
 10
0.0
 20
0.0
 30
0.0
  3
*PAPER_SPACE0
  1

  0
ENDBLK
  5
25
330
23
100
AcDbEntity
 67
     1
  8
0
100
AcDbBlockEnd
  0
BLOCK
  5
261
330
260
100
AcDbEntity
  8
0
100
AcDbBlockBegin
  2
_U0
 70
     0
 10
0.0
 20
0.0
 30
0.0
  3
_U0
  1

  0
MTEXT
  5
262
330
260
100
AcDbEntity
  8
1
  6
Continuous
 62
    18
370
    13
100
AcDbMText
 10
67.07163799533525
 20
111.7468106188283
 30
0.0
 40
3.5
 41
0.0
 71
     7
 72
     5
  1
\fArial|b0|i0;\W1.0000;29,1
  7
Arial
 11
0.0000000000000001
 21
1.0
 31
0.0
 73
     2
 44
1.047436677131444
1001
ACAD
1000
MTEXTBEGIN
1070
    73
1070
     2
1070
    44
1040
1.047436677131444
1070
    74
1070
     0
1000
MTEXTEND
  0
LINE
  5
263
330
260
100
AcDbEntity
  8
1
 62
    18
370
    35
100
AcDbLine
 10
76.42583534069711
 20
101.6320266861556
 30
0.0
 11
65.60000297732877
 21
101.6320266861556
 31
0.0
  0
LINE
  5
264
330
260
100
AcDbEntity
  8
1
 62
    18
370
    35
100
AcDbLine
 10
76.97584438096875
 20
130.7129656292635
 30
0.0
 11
65.60000297732877
 21
130.7129656292635
 31
0.0
  0
LINE
  5
265
330
260
100
AcDbEntity
  8
1
 62
    18
370
    35
100
AcDbLine
 10
67.60000297732879
 20
101.6320266861556
 30
0.0
 11
67.60000297732879
 21
130.7129656292635
 31
0.0
  0
SOLID
  5
266
330
260
100
AcDbEntity
  8
1
 62
    18
370
    70
100
AcDbTrace
 10
67.60000297732879
 20
101.6320266861556
 30
0.0
 11
66.66218080382619
 21
105.1320232413424
 31
0.0
 12
68.53782515083138
 22
105.1320301309688
 32
0.0
 13
68.53782515083138
 23
105.1320301309688
 33
0.0
  0
SOLID
  5
267
330
260
100
AcDbEntity
  8
1
 62
    18
370
    70
100
AcDbTrace
 10
67.60000297732879
 20
130.7129656292635
 30
0.0
 11
68.53782515083138
 21
127.2129690740768
 31
0.0
 12
66.66218080382619
 22
127.2129621844505
 32
0.0
 13
66.66218080382619
 23
127.2129621844505
 33
0.0
  0
ENDBLK
  5
268
330
260
100
AcDbEntity
  8
0
100
AcDbBlockEnd
  0
BLOCK
  5
26A
330
269
100
AcDbEntity
  8
0
100
AcDbBlockBegin
  2
_U1
 70
     0
 10
0.0
 20
0.0
 30
0.0
  3
_U1
  1

  0
MTEXT
  5
26B
330
269
100
AcDbEntity
  8
1
  6
Continuous
 62
    18
370
    13
100
AcDbMText
 10
107.2937991958809
 20
98.88728009038237
 30
0.0
 40
3.5
 41
0.0
 71
     7
 72
     5
  1
\fArial|b0|i0;\W1.0000;54,8
  7
Arial
 11
0.0000000000000001
 21
1.0
 31
0.0
 73
     2
 44
1.047436677131444
1001
ACAD
1000
MTEXTBEGIN
1070
    73
1070
     2
1070
    44
1040
1.047436677131444
1070
    74
1070
     0
1000
MTEXTEND
  0
LINE
  5
26C
330
269
100
AcDbEntity
  8
1
 62
    18
370
    35
100
AcDbLine
 10
94.92584438096924
 20
75.91296562926371
 30
0.0
 11
109.8221641778744
 21
75.91296562926371
 31
0.0
  0
LINE
  5
26D
330
269
100
AcDbEntity
  8
1
 62
    18
370
    35
100
AcDbLine
 10
94.37584438096875
 20
130.7129656292635
 30
0.0
 11
109.8221641778744
 21
130.7129656292635
 31
0.0
  0
LINE
  5
26E
330
269
100
AcDbEntity
  8
1
 62
    18
370
    35
100
AcDbLine
 10
107.8221641778744
 20
75.91296562926371
 30
0.0
 11
107.8221641778744
 21
130.7129656292635
 31
0.0
  0
SOLID
  5
26F
330
269
100
AcDbEntity
  8
1
 62
    18
370
    70
100
AcDbTrace
 10
107.8221641778744
 20
75.91296562926371
 30
0.0
 11
106.8843420043718
 21
79.4129621844505
 31
0.0
 12
108.759986351377
 22
79.41296907407687
 32
0.0
 13
108.759986351377
 23
79.41296907407687
 33
0.0
  0
SOLID
  5
270
330
269
100
AcDbEntity
  8
1
 62
    18
370
    70
100
AcDbTrace
 10
107.8221641778744
 20
130.7129656292635
 30
0.0
 11
108.759986351377
 21
127.2129690740768
 31
0.0
 12
106.8843420043718
 22
127.2129621844505
 32
0.0
 13
106.8843420043718
 23
127.2129621844505
 33
0.0
  0
ENDBLK
  5
271
330
269
100
AcDbEntity
  8
0
100
AcDbBlockEnd
  0
BLOCK
  5
273
330
272
100
AcDbEntity
  8
0
100
AcDbBlockBegin
  2
_U2
 70
     0
 10
0.0
 20
0.0
 30
0.0
  3
_U2
  1

  0
MTEXT
  5
274
330
272
100
AcDbEntity
  8
1
  6
Continuous
 62
    18
370
    13
100
AcDbMText
 10
59.08494091484413
 20
109.0372800903823
 30
0.0
 40
3.5
 41
0.0
 71
     7
 72
     5
  1
\fArial|b0|i0;\W1.0000;34,5
  7
Arial
 11
0.0000000000000001
 21
1.0
 31
0.0
 73
     2
 44
1.047436677131444
1001
ACAD
1000
MTEXTBEGIN
1070
    73
1070
     2
1070
    44
1040
1.047436677131444
1070
    74
1070
     0
1000
MTEXTEND
  0
LINE
  5
275
330
272
100
AcDbEntity
  8
1
 62
    18
370
    35
100
AcDbLine
 10
81.27584438096878
 20
96.21296562926369
 30
0.0
 11
57.61330589683764
 21
96.21296562926369
 31
0.0
  0
LINE
  5
276
330
272
100
AcDbEntity
  8
1
 62
    18
370
    35
100
AcDbLine
 10
76.97584438096875
 20
130.7129656292635
 30
0.0
 11
57.61330589683764
 21
130.7129656292635
 31
0.0
  0
LINE
  5
277
330
272
100
AcDbEntity
  8
1
 62
    18
370
    35
100
AcDbLine
 10
59.61330589683765
 20
96.21296562926369
 30
0.0
 11
59.61330589683765
 21
130.7129656292635
 31
0.0
  0
SOLID
  5
278
330
272
100
AcDbEntity
  8
1
 62
    18
370
    70
100
AcDbTrace
 10
59.61330589683765
 20
96.21296562926369
 30
0.0
 11
58.67548372333505
 21
99.71296218445049
 31
0.0
 12
60.55112807034026
 22
99.71296907407683
 32
0.0
 13
60.55112807034026
 23
99.71296907407683
 33
0.0
  0
SOLID
  5
279
330
272
100
AcDbEntity
  8
1
 62
    18
370
    70
100
AcDbTrace
 10
59.61330589683765
 20
130.7129656292635
 30
0.0
 11
60.55112807034026
 21
127.2129690740768
 31
0.0
 12
58.67548372333505
 22
127.2129621844505
 32
0.0
 13
58.67548372333505
 23
127.2129621844505
 33
0.0
  0
ENDBLK
  5
27A
330
272
100
AcDbEntity
  8
0
100
AcDbBlockEnd
  0
BLOCK
  5
27C
330
27B
100
AcDbEntity
  8
0
100
AcDbBlockBegin
  2
_U3
 70
     0
 10
0.0
 20
0.0
 30
0.0
  3
_U3
  1

  0
MTEXT
  5
27D
330
27B
100
AcDbEntity
  8
1
  6
Continuous
 62
    18
370
    13
100
AcDbMText
 10
83.31704015177367
 20
141.6303249410663
 30
0.0
 40
3.5
 41
0.0
 71
     7
 72
     5
  1
\fArial|b0|i0;\W1.0000;19
  7
Arial
 73
     2
 44
1.047436677131444
1001
ACAD
1000
MTEXTBEGIN
1070
    73
1070
     2
1070
    44
1040
1.047436677131444
1070
    74
1070
     0
1000
MTEXTEND
  0
LINE
  5
27E
330
27B
100
AcDbEntity
  8
1
 62
    18
370
    35
100
AcDbLine
 10
95.17584438096875
 20
129.9129656292637
 30
0.0
 11
95.17584438096875
 21
142.7589599590727
 31
0.0
  0
LINE
  5
27F
330
27B
100
AcDbEntity
  8
1
 62
    18
370
    35
100
AcDbLine
 10
76.17584438096876
 20
129.9129656292637
 30
0.0
 11
76.17584438096876
 21
142.7589599590727
 31
0.0
  0
LINE
  5
280
330
27B
100
AcDbEntity
  8
1
 62
    18
370
    35
100
AcDbLine
 10
95.17584438096875
 20
140.7589599590727
 30
0.0
 11
76.17584438096876
 21
140.7589599590727
 31
0.0
  0
SOLID
  5
281
330
27B
100
AcDbEntity
  8
1
 62
    18
370
    70
100
AcDbTrace
 10
95.17584438096875
 20
140.7589599590727
 30
0.0
 11
91.67584782578192
 21
139.8211377855701
 31
0.0
 12
91.67584093615557
 22
141.6967821325753
 32
0.0
 13
91.67584093615557
 23
141.6967821325753
 33
0.0
  0
SOLID
  5
282
330
27B
100
AcDbEntity
  8
1
 62
    18
370
    70
100
AcDbTrace
 10
76.17584438096876
 20
140.7589599590727
 30
0.0
 11
79.67584093615556
 21
141.6967821325753
 31
0.0
 12
79.67584782578194
 22
139.8211377855701
 32
0.0
 13
79.67584782578194
 23
139.8211377855701
 33
0.0
  0
ENDBLK
  5
283
330
27B
100
AcDbEntity
  8
0
100
AcDbBlockEnd
  0
ENDSEC
  0
SECTION
  2
ENTITIES
  0
LINE
  5
78
330
1F
100
AcDbEntity
  8
1
  6
Continuous
 62
     8
 60
     1
370
    70
100
AcDbLine
 10
0.0
 20
0.0
 30
0.0
 11
0.0
 21
210.0
 31
0.0
  0
LINE
  5
79
330
1F
100
AcDbEntity
  8
1
  6
Continuous
 62
     8
 60
     1
370
    70
100
AcDbLine
 10
297.0
 20
210.0
 30
0.0
 11
0.0
 21
210.0
 31
0.0
  0
LINE
  5
7A
330
1F
100
AcDbEntity
  8
1
  6
Continuous
 62
     8
 60
     1
370
    70
100
AcDbLine
 10
297.0
 20
210.0
 30
0.0
 11
297.0
 21
0.0
 31
0.0
  0
LINE
  5
7B
330
1F
100
AcDbEntity
  8
1
  6
Continuous
 62
     8
 60
     1
370
    70
100
AcDbLine
 10
0.0
 20
0.0
 30
0.0
 11
297.0
 21
0.0
 31
0.0
  0
LINE
  5
AA
330
1F
100
AcDbEntity
  8
1
  6
Continuous
 62
   155
370
    70
100
AcDbLine
 10
1131.419693974222
 20
104.4545614576927
 30
0.0
 11
1132.419678349223
 21
104.4545614576927
 31
0.0
  0
LINE
  5
13F
330
1F
100
AcDbEntity
  8
1
  6
Continuous
 62
   155
370
    70
100
AcDbLine
 10
1131.419678349222
 20
85.47201652262101
 30
0.0
 11
1131.419678349222
 21
86.25456145769277
 31
0.0
  0
LINE
  5
140
330
1F
100
AcDbEntity
  8
1
  6
Continuous
 62
   155
370
    70
100
AcDbLine
 10
1131.419678349222
 20
103.6545614576928
 30
0.0
 11
1131.419678349222
 21
86.25456145769277
 31
0.0
  0
LINE
  5
141
330
1F
100
AcDbEntity
  8
1
  6
Continuous
 62
   155
370
    70
100
AcDbLine
 10
1131.419678349222
 20
104.4371063927645
 30
0.0
 11
1131.419678349222
 21
103.6545614576928
 31
0.0
  0
LINE
  5
142
330
1F
100
AcDbEntity
  8
1
  6
Continuous
 62
   155
370
    70
100
AcDbLine
 10
1139.454583162097
 20
95.61930048210957
 30
0.0
 11
1139.454583162097
 21
95.16249872059182
 31
0.0
  0
LINE
  5
143
330
1F
100
AcDbEntity
  8
1
  6
Continuous
 62
   155
370
    70
100
AcDbLine
 10
1139.454583162097
 20
95.16249872059182
 30
0.0
 11
1139.419677693347
 21
95.16249872059182
 31
0.0
  0
LINE
  5
144
330
1F
100
AcDbEntity
  8
1
  6
Continuous
 62
   155
370
    70
100
AcDbLine
 10
1139.454583162097
 20
96.05965210283995
 30
0.0
 11
1139.454583162097
 21
95.61930083685451
 31
0.0
  0
LINE
  5
145
330
1F
100
AcDbEntity
  8
1
  6
Continuous
 62
   155
370
    70
100
AcDbLine
 10
1139.454583162097
 20
96.05965207652184
 30
0.0
 11
1139.419677693347
 21
96.05965207652184
 31
0.0
  0
LINE
  5
146
330
1F
100
AcDbEntity
  8
1
  6
Continuous
 62
   155
370
    70
100
AcDbLine
 10
1139.454583162097
 20
95.61930048210957
 30
0.0
 11
1139.419677693347
 21
95.61930048210957
 31
0.0
  0
LINE
  5
147
330
1F
100
AcDbEntity
  8
1
  6
Continuous
 62
   155
370
    70
100
AcDbLine
 10
1139.419678349222
 20
86.25456145769277
 30
0.0
 11
1139.419678349222
 21
85.71391177434696
 31
0.0
  0
LINE
  5
148
330
1F
100
AcDbEntity
  8
1
  6
Continuous
 62
   155
370
    70
100
AcDbLine
 10
1139.419678349222
 20
104.1952111410384
 30
0.0
 11
1139.419678349222
 21
103.6545614576928
 31
0.0
  0
LINE
  5
14A
330
1F
100
AcDbEntity
  8
1
  6
Continuous
 62
   155
370
    70
100
AcDbLine
 10
1139.419678349222
 20
103.6545614576928
 30
0.0
 11
1139.419678349222
 21
86.25456145769277
 31
0.0
  0
LINE
  5
14C
330
1F
100
AcDbEntity
  8
1
  6
Continuous
 62
   155
370
    70
100
AcDbLine
 10
1132.419678349223
 20
85.45456145769277
 30
0.0
 11
1131.419678349222
 21
85.47201652262101
 31
0.0
  0
LINE
  5
14D
330
1F
100
AcDbEntity
  8
1
  6
Continuous
 62
   155
370
    70
100
AcDbLine
 10
1139.221423656322
 20
85.51391938973422
 30
0.0
 11
1132.419678349223
 21
85.45456145769277
 31
0.0
  0
LINE
  5
150
330
1F
100
AcDbEntity
  8
1
  6
Continuous
 62
   155
370
    70
100
AcDbLine
 10
1131.419678349222
 20
104.4371063927645
 30
0.0
 11
1132.419678349223
 21
104.4545614576927
 31
0.0
  0
LINE
  5
154
330
1F
100
AcDbEntity
  8
1
  6
Continuous
 62
   155
370
    70
100
AcDbLine
 10
1132.419678349223
 20
104.4545614576927
 30
0.0
 11
1139.221423656322
 21
104.3952035256513
 31
0.0
  0
LINE
  5
166
330
1F
100
AcDbEntity
  8
1
  6
Continuous
 62
   155
370
    70
100
AcDbLine
 10
1131.419678349222
 20
85.4720512630625
 30
0.0
 11
1131.419678349222
 21
85.45456145769277
 31
0.0
  0
LINE
  5
167
330
1F
100
AcDbEntity
  8
1
  6
Continuous
 62
   155
370
    70
100
AcDbLine
 10
147.9196783492226
 20
85.4720512630625
 30
0.0
 11
147.9196783492226
 21
85.45456145769287
 31
0.0
  0
LINE
  5
169
330
1F
100
AcDbEntity
  8
1
  6
Continuous
 62
   155
370
    70
100
AcDbLine
 10
147.9196783492226
 20
85.45456145769287
 30
0.0
 11
1131.419678349222
 21
85.45456145769287
 31
0.0
  0
LINE
  5
16A
330
1F
100
AcDbEntity
  8
1
  6
Continuous
 62
   155
370
    70
100
AcDbLine
 10
147.9196783492226
 20
104.4545614576927
 30
0.0
 11
1131.419678349222
 21
104.4545614576927
 31
0.0
  0
LINE
  5
16B
330
1F
100
AcDbEntity
  8
1
  6
Continuous
 62
   155
370
    70
100
AcDbLine
 10
147.9196783492226
 20
104.437071652323
 30
0.0
 11
147.9196783492226
 21
104.4545614576927
 31
0.0
  0
LINE
  5
16D
330
1F
100
AcDbEntity
  8
1
  6
Continuous
 62
   155
370
    70
100
AcDbLine
 10
1131.419678349222
 20
104.437071652323
 30
0.0
 11
1131.419678349222
 21
104.4545614576927
 31
0.0
  0
LINE
  5
1C2
330
1F
100
AcDbEntity
  8
1
  6
Continuous
 62
   155
370
    70
100
AcDbLine
 10
147.9196783492226
 20
85.47201652262101
 30
0.0
 11
147.9196783492226
 21
86.25456145769282
 31
0.0
  0
LINE
  5
1C3
330
1F
100
AcDbEntity
  8
1
  6
Continuous
 62
   155
370
    70
100
AcDbLine
 10
147.9196783492226
 20
86.25456145769282
 30
0.0
 11
147.9196783492226
 21
103.6545614576928
 31
0.0
  0
LINE
  5
1C4
330
1F
100
AcDbEntity
  8
1
  6
Continuous
 62
   155
370
    70
100
AcDbLine
 10
147.9196783492226
 20
104.4371063927646
 30
0.0
 11
147.9196783492226
 21
103.6545614576928
 31
0.0
  0
LINE
  5
1C5
330
1F
100
AcDbEntity
  8
1
  6
Continuous
 62
   155
370
    70
100
AcDbLine
 10
139.884773536348
 20
94.28982243327601
 30
0.0
 11
139.884773536348
 21
94.74662419479376
 31
0.0
  0
LINE
  5
1C6
330
1F
100
AcDbEntity
  8
1
  6
Continuous
 62
   155
370
    70
100
AcDbLine
 10
139.884773536348
 20
94.74662419479376
 30
0.0
 11
139.9196790050979
 21
94.74662419479376
 31
0.0
  0
LINE
  5
1C7
330
1F
100
AcDbEntity
  8
1
  6
Continuous
 62
   155
370
    70
100
AcDbLine
 10
139.884773536348
 20
93.84947081254574
 30
0.0
 11
139.884773536348
 21
94.28982207853101
 31
0.0
  0
LINE
  5
1C8
330
1F
100
AcDbEntity
  8
1
  6
Continuous
 62
   155
370
    70
100
AcDbLine
 10
139.884773536348
 20
93.84947083886373
 30
0.0
 11
139.9196790050979
 21
93.84947083886373
 31
0.0
  0
LINE
  5
1C9
330
1F
100
AcDbEntity
  8
1
  6
Continuous
 62
   155
370
    70
100
AcDbLine
 10
139.884773536348
 20
94.28982243327601
 30
0.0
 11
139.9196790050979
 21
94.28982243327601
 31
0.0
  0
LINE
  5
1CA
330
1F
100
AcDbEntity
  8
1
  6
Continuous
 62
   155
370
    70
100
AcDbLine
 10
139.9196783492226
 20
85.71391177434714
 30
0.0
 11
139.9196783492226
 21
86.25456145769282
 31
0.0
  0
LINE
  5
1CC
330
1F
100
AcDbEntity
  8
1
  6
Continuous
 62
   155
370
    70
100
AcDbLine
 10
139.9196783492226
 20
86.25456145769282
 30
0.0
 11
139.9196783492226
 21
103.6545614576928
 31
0.0
  0
LINE
  5
1CE
330
1F
100
AcDbEntity
  8
1
  6
Continuous
 62
   155
370
    70
100
AcDbLine
 10
139.9196783492226
 20
103.6545614576928
 30
0.0
 11
139.9196783492226
 21
104.1952111410384
 31
0.0
  0
LINE
  5
1D4
330
1F
100
AcDbEntity
  8
1
  6
Continuous
 62
   155
370
    70
100
AcDbLine
 10
146.9196783492226
 20
85.45456145769287
 30
0.0
 11
140.1179330421233
 21
85.51391938973427
 31
0.0
  0
LINE
  5
1D6
330
1F
100
AcDbEntity
  8
1
  6
Continuous
 62
   155
370
    70
100
AcDbLine
 10
140.1179330421233
 20
104.3952035256513
 30
0.0
 11
146.9196783492226
 21
104.4545614576927
 31
0.0
  0
LINE
  5
1D9
330
1F
100
AcDbEntity
  8
1
  6
Continuous
 62
   155
370
    70
100
AcDbLine
 10
147.9196783492226
 20
85.47201652262101
 30
0.0
 11
146.9196783492226
 21
85.45456145769287
 31
0.0
  0
LINE
  5
1DA
330
1F
100
AcDbEntity
  8
1
  6
Continuous
 62
   155
370
    70
100
AcDbLine
 10
146.9196783492226
 20
104.4545614576927
 30
0.0
 11
147.9196783492226
 21
104.4371063927646
 31
0.0
  0
ARC
  5
1FF
330
1F
100
AcDbEntity
  8
1
  6
Continuous
 62
   155
370
    70
100
AcDbCircle
 10
1139.219678349222
 20
85.71391177434696
 30
0.0
 40
0.2
100
AcDbArc
 50
270.499999999998
 51
0.0
  0
ARC
  5
200
330
1F
100
AcDbEntity
  8
1
  6
Continuous
 62
   155
370
    70
100
AcDbCircle
 10
1139.219678349222
 20
104.1952111410384
 30
0.0
 40
0.2
100
AcDbArc
 50
0.0
 51
89.49999999999542
  0
ARC
  5
203
330
1F
100
AcDbEntity
  8
1
  6
Continuous
 62
   155
370
    70
100
AcDbCircle
 10
140.1196783492229
 20
85.71391177434714
 30
0.0
 40
0.2
100
AcDbArc
 50
180.0
 51
269.500000000002
  0
ARC
  5
204
330
1F
100
AcDbEntity
  8
1
  6
Continuous
 62
   155
370
    70
100
AcDbCircle
 10
140.1196783492229
 20
104.1952111410384
 30
0.0
 40
0.2
100
AcDbArc
 50
90.49999999999805
 51
180.0
  0
LINE
  5
647
330
1F
100
AcDbEntity
  8
1
  6
Continuous
 62
   155
370
    70
100
AcDbLine
 10
631.662966857306
 20
168.0458056777723
 30
0.0
 11
632.6629512323062
 21
168.0458056777723
 31
0.0
  0
LINE
  5
6DC
330
1F
100
AcDbEntity
  8
1
  6
Continuous
 62
   155
370
    70
100
AcDbLine
 10
631.6629512323062
 20
149.0632607427009
 30
0.0
 11
631.6629512323062
 21
149.8458056777723
 31
0.0
  0
LINE
  5
6DD
330
1F
100
AcDbEntity
  8
1
  6
Continuous
 62
   155
370
    70
100
AcDbLine
 10
631.6629512323062
 20
167.2458056777722
 30
0.0
 11
631.6629512323062
 21
149.8458056777723
 31
0.0
  0
LINE
  5
6DE
330
1F
100
AcDbEntity
  8
1
  6
Continuous
 62
   155
370
    70
100
AcDbLine
 10
631.6629512323062
 20
168.0283506128444
 30
0.0
 11
631.6629512323062
 21
167.2458056777722
 31
0.0
  0
LINE
  5
6E4
330
1F
100
AcDbEntity
  8
1
  6
Continuous
 62
   155
370
    70
100
AcDbLine
 10
639.6629512323053
 20
149.8458056777723
 30
0.0
 11
639.6629512323053
 21
149.3051559944268
 31
0.0
  0
LINE
  5
6E5
330
1F
100
AcDbEntity
  8
1
  6
Continuous
 62
   155
370
    70
100
AcDbLine
 10
639.6629512323053
 20
167.7864553611176
 30
0.0
 11
639.6629512323053
 21
167.2458056777722
 31
0.0
  0
LINE
  5
6E7
330
1F
100
AcDbEntity
  8
1
  6
Continuous
 62
   155
370
    70
100
AcDbLine
 10
639.6629512323053
 20
167.2458056777722
 30
0.0
 11
639.6629512323053
 21
149.8458056777723
 31
0.0
  0
LINE
  5
6E9
330
1F
100
AcDbEntity
  8
1
  6
Continuous
 62
   155
370
    70
100
AcDbLine
 10
632.6629512323062
 20
149.0458056777723
 30
0.0
 11
631.6629512323062
 21
149.0632607427009
 31
0.0
  0
LINE
  5
6EA
330
1F
100
AcDbEntity
  8
1
  6
Continuous
 62
   155
370
    70
100
AcDbLine
 10
639.4646965394059
 20
149.1051636098137
 30
0.0
 11
632.6629512323062
 21
149.0458056777723
 31
0.0
  0
LINE
  5
6ED
330
1F
100
AcDbEntity
  8
1
  6
Continuous
 62
   155
370
    70
100
AcDbLine
 10
631.6629512323062
 20
168.0283506128444
 30
0.0
 11
632.6629512323062
 21
168.0458056777723
 31
0.0
  0
LINE
  5
6F1
330
1F
100
AcDbEntity
  8
1
  6
Continuous
 62
   155
370
    70
100
AcDbLine
 10
632.6629512323062
 20
168.0458056777723
 30
0.0
 11
639.4646965394059
 21
167.9864477457306
 31
0.0
  0
LINE
  5
703
330
1F
100
AcDbEntity
  8
1
  6
Continuous
 62
   155
370
    70
100
AcDbLine
 10
631.6629512323062
 20
149.0632954831422
 30
0.0
 11
631.6629512323062
 21
149.0458056777723
 31
0.0
  0
LINE
  5
704
330
1F
100
AcDbEntity
  8
1
  6
Continuous
 62
   155
370
    70
100
AcDbLine
 10
147.9129512323062
 20
149.0462517316257
 30
0.0
 11
147.9129512323062
 21
149.0287619262557
 31
0.0
  0
LINE
  5
706
330
1F
100
AcDbEntity
  8
1
  6
Continuous
 62
   155
370
    70
100
AcDbLine
 10
147.9129512323062
 20
149.0287619262557
 30
0.0
 11
631.6629512323062
 21
149.0287619262557
 31
0.0
  0
LINE
  5
707
330
1F
100
AcDbEntity
  8
1
  6
Continuous
 62
   155
370
    70
100
AcDbLine
 10
147.9129512323062
 20
168.0287619262557
 30
0.0
 11
634.6159717117053
 21
168.0287619262557
 31
0.0
  0
LINE
  5
708
330
1F
100
AcDbEntity
  8
1
  6
Continuous
 62
   155
370
    70
100
AcDbLine
 10
147.9129512323062
 20
168.0112721208862
 30
0.0
 11
147.9129512323062
 21
168.0287619262557
 31
0.0
  0
LINE
  5
70A
330
1F
100
AcDbEntity
  8
1
  6
Continuous
 62
   155
370
    70
100
AcDbLine
 10
631.6629512323062
 20
168.0283158724027
 30
0.0
 11
631.6629512323062
 21
168.0458056777723
 31
0.0
  0
LINE
  5
75F
330
1F
100
AcDbEntity
  8
1
  6
Continuous
 62
   155
370
    70
100
AcDbLine
 10
147.9129512323062
 20
149.0462169911842
 30
0.0
 11
147.9129512323062
 21
149.8287619262559
 31
0.0
  0
LINE
  5
760
330
1F
100
AcDbEntity
  8
1
  6
Continuous
 62
   155
370
    70
100
AcDbLine
 10
147.9129512323062
 20
149.8287619262559
 30
0.0
 11
147.9129512323062
 21
167.2287619262557
 31
0.0
  0
LINE
  5
761
330
1F
100
AcDbEntity
  8
1
  6
Continuous
 62
   155
370
    70
100
AcDbLine
 10
147.9129512323062
 20
168.0113068613278
 30
0.0
 11
147.9129512323062
 21
167.2287619262557
 31
0.0
  0
LINE
  5
762
330
1F
100
AcDbEntity
  8
1
  6
Continuous
 62
   155
370
    70
100
AcDbLine
 10
139.8780464194316
 20
157.8640229018393
 30
0.0
 11
139.8780464194316
 21
158.3208246633569
 31
0.0
  0
LINE
  5
763
330
1F
100
AcDbEntity
  8
1
  6
Continuous
 62
   155
370
    70
100
AcDbLine
 10
139.8780464194316
 20
158.3208246633569
 30
0.0
 11
139.9129518881819
 21
158.3208246633569
 31
0.0
  0
LINE
  5
764
330
1F
100
AcDbEntity
  8
1
  6
Continuous
 62
   155
370
    70
100
AcDbLine
 10
139.8780464194316
 20
157.4236712811087
 30
0.0
 11
139.8780464194316
 21
157.8640225470943
 31
0.0
  0
LINE
  5
765
330
1F
100
AcDbEntity
  8
1
  6
Continuous
 62
   155
370
    70
100
AcDbLine
 10
139.8780464194316
 20
157.4236713074268
 30
0.0
 11
139.9129518881819
 21
157.4236713074268
 31
0.0
  0
LINE
  5
766
330
1F
100
AcDbEntity
  8
1
  6
Continuous
 62
   155
370
    70
100
AcDbLine
 10
139.8780464194316
 20
157.8640229018393
 30
0.0
 11
139.9129518881819
 21
157.8640229018393
 31
0.0
  0
LINE
  5
767
330
1F
100
AcDbEntity
  8
1
  6
Continuous
 62
   155
370
    70
100
AcDbLine
 10
139.9129512323071
 20
149.2881122429102
 30
0.0
 11
139.9129512323071
 21
149.8287619262559
 31
0.0
  0
LINE
  5
769
330
1F
100
AcDbEntity
  8
1
  6
Continuous
 62
   155
370
    70
100
AcDbLine
 10
139.9129512323071
 20
149.8287619262559
 30
0.0
 11
139.9129512323071
 21
167.2287619262557
 31
0.0
  0
LINE
  5
76B
330
1F
100
AcDbEntity
  8
1
  6
Continuous
 62
   155
370
    70
100
AcDbLine
 10
139.9129512323071
 20
167.2287619262557
 30
0.0
 11
139.9129512323071
 21
167.7694116096017
 31
0.0
  0
LINE
  5
771
330
1F
100
AcDbEntity
  8
1
  6
Continuous
 62
   155
370
    70
100
AcDbLine
 10
146.9129512323062
 20
149.0287619262557
 30
0.0
 11
140.1112059252065
 21
149.0881198582973
 31
0.0
  0
LINE
  5
773
330
1F
100
AcDbEntity
  8
1
  6
Continuous
 62
   155
370
    70
100
AcDbLine
 10
140.1112059252065
 20
167.9694039942148
 30
0.0
 11
146.9129512323062
 21
168.0287619262557
 31
0.0
  0
LINE
  5
776
330
1F
100
AcDbEntity
  8
1
  6
Continuous
 62
   155
370
    70
100
AcDbLine
 10
147.9129512323062
 20
149.0462169911842
 30
0.0
 11
146.9129512323062
 21
149.0287619262557
 31
0.0
  0
LINE
  5
777
330
1F
100
AcDbEntity
  8
1
  6
Continuous
 62
   155
370
    70
100
AcDbLine
 10
146.9129512323062
 20
168.0287619262557
 30
0.0
 11
147.9129512323062
 21
168.0113068613278
 31
0.0
  0
ARC
  5
79C
330
1F
100
AcDbEntity
  8
1
  6
Continuous
 62
   155
370
    70
100
AcDbCircle
 10
639.4629512323064
 20
149.3051559944268
 30
0.0
 40
0.2
100
AcDbArc
 50
270.5000000000045
 51
0.0
  0
ARC
  5
79D
330
1F
100
AcDbEntity
  8
1
  6
Continuous
 62
   155
370
    70
100
AcDbCircle
 10
639.4629512323064
 20
167.7864553611176
 30
0.0
 40
0.2
100
AcDbArc
 50
0.0
 51
89.49999999999542
  0
ARC
  5
7A0
330
1F
100
AcDbEntity
  8
1
  6
Continuous
 62
   155
370
    70
100
AcDbCircle
 10
140.112951232306
 20
149.2881122429102
 30
0.0
 40
0.2
100
AcDbArc
 50
180.0
 51
269.4999999999954
  0
ARC
  5
7A1
330
1F
100
AcDbEntity
  8
1
  6
Continuous
 62
   155
370
    70
100
AcDbCircle
 10
140.112951232306
 20
167.7694116096017
 30
0.0
 40
0.2
100
AcDbArc
 50
90.50000000000457
 51
180.0
  0
LINE
  5
7C7
330
1F
100
AcDbEntity
  8
1
  6
Continuous
 62
   155
370
    70
100
AcDbLine
 10
381.7879668573061
 20
239.6163543805711
 30
0.0
 11
382.7879512323053
 21
239.6163543805711
 31
0.0
  0
LINE
  5
81C
330
1F
100
AcDbEntity
  8
1
  6
Continuous
 62
   155
370
    70
100
AcDbLine
 10
381.7879512323053
 20
220.6338094454999
 30
0.0
 11
381.7879512323053
 21
221.4163543805711
 31
0.0
  0
LINE
  5
81D
330
1F
100
AcDbEntity
  8
1
  6
Continuous
 62
   155
370
    70
100
AcDbLine
 10
381.7879512323053
 20
238.8163543805712
 30
0.0
 11
381.7879512323053
 21
221.4163543805711
 31
0.0
  0
LINE
  5
81E
330
1F
100
AcDbEntity
  8
1
  6
Continuous
 62
   155
370
    70
100
AcDbLine
 10
381.7879512323053
 20
239.598899315643
 30
0.0
 11
381.7879512323053
 21
238.8163543805712
 31
0.0
  0
LINE
  5
81F
330
1F
100
AcDbEntity
  8
1
  6
Continuous
 62
   155
370
    70
100
AcDbLine
 10
389.7879512323062
 20
221.4163543805711
 30
0.0
 11
389.7879512323062
 21
220.8757046972256
 31
0.0
  0
LINE
  5
820
330
1F
100
AcDbEntity
  8
1
  6
Continuous
 62
   155
370
    70
100
AcDbLine
 10
389.7879512323062
 20
239.3570040639168
 30
0.0
 11
389.7879512323062
 21
238.8163543805712
 31
0.0
  0
LINE
  5
822
330
1F
100
AcDbEntity
  8
1
  6
Continuous
 62
   155
370
    70
100
AcDbLine
 10
389.7879512323062
 20
238.8163543805712
 30
0.0
 11
389.7879512323062
 21
221.4163543805711
 31
0.0
  0
LINE
  5
824
330
1F
100
AcDbEntity
  8
1
  6
Continuous
 62
   155
370
    70
100
AcDbLine
 10
382.7879512323053
 20
220.6163543805713
 30
0.0
 11
381.7879512323053
 21
220.6338094454999
 31
0.0
  0
LINE
  5
825
330
1F
100
AcDbEntity
  8
1
  6
Continuous
 62
   155
370
    70
100
AcDbLine
 10
389.589696539406
 20
220.6757123126128
 30
0.0
 11
382.7879512323053
 21
220.6163543805713
 31
0.0
  0
LINE
  5
828
330
1F
100
AcDbEntity
  8
1
  6
Continuous
 62
   155
370
    70
100
AcDbLine
 10
381.7879512323053
 20
239.598899315643
 30
0.0
 11
382.7879512323053
 21
239.6163543805711
 31
0.0
  0
LINE
  5
82C
330
1F
100
AcDbEntity
  8
1
  6
Continuous
 62
   155
370
    70
100
AcDbLine
 10
382.7879512323053
 20
239.6163543805711
 30
0.0
 11
389.589696539406
 21
239.5569964485296
 31
0.0
  0
LINE
  5
83E
330
1F
100
AcDbEntity
  8
1
  6
Continuous
 62
   155
370
    70
100
AcDbLine
 10
381.7879512323053
 20
220.6338441859413
 30
0.0
 11
381.7879512323053
 21
220.6163543805713
 31
0.0
  0
LINE
  5
83F
330
1F
100
AcDbEntity
  8
1
  6
Continuous
 62
   155
370
    70
100
AcDbLine
 10
147.9129512323062
 20
220.6168004344247
 30
0.0
 11
147.9129512323062
 21
220.5993106290547
 31
0.0
  0
LINE
  5
841
330
1F
100
AcDbEntity
  8
1
  6
Continuous
 62
   155
370
    70
100
AcDbLine
 10
147.9129512323062
 20
220.5993106290547
 30
0.0
 11
381.7879512323053
 21
220.5993106290547
 31
0.0
  0
LINE
  5
842
330
1F
100
AcDbEntity
  8
1
  6
Continuous
 62
   155
370
    70
100
AcDbLine
 10
147.9129512323062
 20
239.5993106290547
 30
0.0
 11
384.7409717117081
 21
239.5993106290547
 31
0.0
  0
LINE
  5
843
330
1F
100
AcDbEntity
  8
1
  6
Continuous
 62
   155
370
    70
100
AcDbLine
 10
147.9129512323062
 20
239.5818208236852
 30
0.0
 11
147.9129512323062
 21
239.5993106290547
 31
0.0
  0
LINE
  5
845
330
1F
100
AcDbEntity
  8
1
  6
Continuous
 62
   155
370
    70
100
AcDbLine
 10
381.7879512323053
 20
239.5988645752019
 30
0.0
 11
381.7879512323053
 21
239.6163543805711
 31
0.0
  0
LINE
  5
86A
330
1F
100
AcDbEntity
  8
1
  6
Continuous
 62
   155
370
    70
100
AcDbLine
 10
147.9129512323062
 20
220.6167656939832
 30
0.0
 11
147.9129512323062
 21
221.3993106290549
 31
0.0
  0
LINE
  5
86B
330
1F
100
AcDbEntity
  8
1
  6
Continuous
 62
   155
370
    70
100
AcDbLine
 10
147.9129512323062
 20
221.3993106290549
 30
0.0
 11
147.9129512323062
 21
238.7993106290552
 31
0.0
  0
LINE
  5
86C
330
1F
100
AcDbEntity
  8
1
  6
Continuous
 62
   155
370
    70
100
AcDbLine
 10
147.9129512323062
 20
239.5818555641268
 30
0.0
 11
147.9129512323062
 21
238.7993106290552
 31
0.0
  0
LINE
  5
86D
330
1F
100
AcDbEntity
  8
1
  6
Continuous
 62
   155
370
    70
100
AcDbLine
 10
139.8780464194316
 20
229.4345716046383
 30
0.0
 11
139.8780464194316
 21
229.8913733661556
 31
0.0
  0
LINE
  5
86E
330
1F
100
AcDbEntity
  8
1
  6
Continuous
 62
   155
370
    70
100
AcDbLine
 10
139.8780464194316
 20
229.8913733661556
 30
0.0
 11
139.9129518881819
 21
229.8913733661556
 31
0.0
  0
LINE
  5
86F
330
1F
100
AcDbEntity
  8
1
  6
Continuous
 62
   155
370
    70
100
AcDbLine
 10
139.8780464194316
 20
228.9942199839075
 30
0.0
 11
139.8780464194316
 21
229.4345712498933
 31
0.0
  0
LINE
  5
870
330
1F
100
AcDbEntity
  8
1
  6
Continuous
 62
   155
370
    70
100
AcDbLine
 10
139.8780464194316
 20
228.9942200102258
 30
0.0
 11
139.9129518881819
 21
228.9942200102258
 31
0.0
  0
LINE
  5
871
330
1F
100
AcDbEntity
  8
1
  6
Continuous
 62
   155
370
    70
100
AcDbLine
 10
139.8780464194316
 20
229.4345716046383
 30
0.0
 11
139.9129518881819
 21
229.4345716046383
 31
0.0
  0
LINE
  5
872
330
1F
100
AcDbEntity
  8
1
  6
Continuous
 62
   155
370
    70
100
AcDbLine
 10
139.9129512323071
 20
220.8586609457092
 30
0.0
 11
139.9129512323071
 21
221.3993106290549
 31
0.0
  0
LINE
  5
874
330
1F
100
AcDbEntity
  8
1
  6
Continuous
 62
   155
370
    70
100
AcDbLine
 10
139.9129512323071
 20
221.3993106290549
 30
0.0
 11
139.9129512323071
 21
238.7993106290552
 31
0.0
  0
LINE
  5
876
330
1F
100
AcDbEntity
  8
1
  6
Continuous
 62
   155
370
    70
100
AcDbLine
 10
139.9129512323071
 20
238.7993106290552
 30
0.0
 11
139.9129512323071
 21
239.3399603124008
 31
0.0
  0
LINE
  5
87C
330
1F
100
AcDbEntity
  8
1
  6
Continuous
 62
   155
370
    70
100
AcDbLine
 10
146.9129512323062
 20
220.5993106290547
 30
0.0
 11
140.1112059252065
 21
220.6586685610961
 31
0.0
  0
LINE
  5
87E
330
1F
100
AcDbEntity
  8
1
  6
Continuous
 62
   155
370
    70
100
AcDbLine
 10
140.1112059252065
 20
239.5399526970133
 30
0.0
 11
146.9129512323062
 21
239.5993106290547
 31
0.0
  0
LINE
  5
881
330
1F
100
AcDbEntity
  8
1
  6
Continuous
 62
   155
370
    70
100
AcDbLine
 10
147.9129512323062
 20
220.6167656939832
 30
0.0
 11
146.9129512323062
 21
220.5993106290547
 31
0.0
  0
LINE
  5
882
330
1F
100
AcDbEntity
  8
1
  6
Continuous
 62
   155
370
    70
100
AcDbLine
 10
146.9129512323062
 20
239.5993106290547
 30
0.0
 11
147.9129512323062
 21
239.5818555641268
 31
0.0
  0
ARC
  5
897
330
1F
100
AcDbEntity
  8
1
  6
Continuous
 62
   155
370
    70
100
AcDbCircle
 10
389.5879512323064
 20
220.8757046972256
 30
0.0
 40
0.2
100
AcDbArc
 50
270.5000000000045
 51
0.0
  0
ARC
  5
898
330
1F
100
AcDbEntity
  8
1
  6
Continuous
 62
   155
370
    70
100
AcDbCircle
 10
389.5879512323064
 20
239.3570040639168
 30
0.0
 40
0.2
100
AcDbArc
 50
0.0
 51
89.49999999999542
  0
ARC
  5
89B
330
1F
100
AcDbEntity
  8
1
  6
Continuous
 62
   155
370
    70
100
AcDbCircle
 10
140.112951232306
 20
220.8586609457092
 30
0.0
 40
0.2
100
AcDbArc
 50
180.0
 51
269.4999999999954
  0
ARC
  5
89C
330
1F
100
AcDbEntity
  8
1
  6
Continuous
 62
   155
370
    70
100
AcDbCircle
 10
140.112951232306
 20
239.3399603124008
 30
0.0
 40
0.2
100
AcDbArc
 50
90.50000000000457
 51
180.0
  0
LINE
  5
996
330
1F
100
AcDbEntity
  8
1
  6
Continuous
370
    35
100
AcDbLine
 10
820.6984740394579
 20
209.740721883472
 30
0.0
 11
820.6984740394579
 21
214.6615705815548
 31
0.0
  0
LINE
  5
997
330
1F
100
AcDbEntity
  8
1
  6
Continuous
370
    35
100
AcDbLine
 10
839.698474039458
 20
209.740721883472
 30
0.0
 11
839.698474039458
 21
214.6615705815548
 31
0.0
  0
LINE
  5
998
330
1F
100
AcDbEntity
  8
1
  6
Continuous
370
    35
100
AcDbLine
 10
824.1984740394579
 20
212.6615705815548
 30
0.0
 11
836.198474039458
 21
212.6615705815548
 31
0.0
  0
SOLID
  5
999
330
1F
100
AcDbEntity
  8
1
  6
Continuous
370
    70
100
AcDbTrace
 10
824.1984740394579
 20
213.2449039148881
 30
0.0
 11
824.1984740394579
 21
212.0782372482214
 31
0.0
 12
820.6984740394579
 22
212.6615705815548
 32
0.0
 13
820.6984740394579
 23
212.6615705815548
 33
0.0
  0
SOLID
  5
99A
330
1F
100
AcDbEntity
  8
1
  6
Continuous
370
    70
100
AcDbTrace
 10
836.198474039458
 20
212.0782372482214
 30
0.0
 11
836.198474039458
 21
213.2449039148881
 31
0.0
 12
839.698474039458
 22
212.6615705815548
 32
0.0
 13
839.698474039458
 23
212.6615705815548
 33
0.0
  0
MTEXT
  5
99B
330
1F
100
AcDbEntity
  8
1
  6
Continuous
370
    13
100
AcDbMText
 10
827.8528055537826
 20
217.9855814956066
 30
0.0
 40
3.5
 41
0.0
 71
     1
 72
     5
  1
\A1;19
  7
Arial
 73
     1
 44
1.0
1001
ACAD
1000
MTEXTBEGIN
1070
    73
1070
     1
1070
    44
1040
1.0
1070
    74
1070
     0
1000
MTEXTEND
  0
LINE
  5
99C
330
1F
100
AcDbEntity
  8
1
  6
Continuous
370
    35
100
AcDbLine
 10
807.4031381873503
 20
208.347751964223
 30
0.0
 11
802.1359355553268
 21
208.347751964223
 31
0.0
  0
LINE
  5
99D
330
1F
100
AcDbEntity
  8
1
  6
Continuous
370
    35
100
AcDbLine
 10
807.4031381873503
 20
173.847751964223
 30
0.0
 11
802.1359355553268
 21
173.847751964223
 31
0.0
  0
LINE
  5
99E
330
1F
100
AcDbEntity
  8
1
  6
Continuous
370
    35
100
AcDbLine
 10
804.1359355553268
 20
204.847751964223
 30
0.0
 11
804.1359355553268
 21
197.4053918005122
 31
0.0
  0
LINE
  5
99F
330
1F
100
AcDbEntity
  8
1
  6
Continuous
370
    35
100
AcDbLine
 10
804.1359355553268
 20
177.347751964223
 30
0.0
 11
804.1359355553268
 21
184.7901121279337
 31
0.0
  0
SOLID
  5
9A0
330
1F
100
AcDbEntity
  8
1
  6
Continuous
370
    70
100
AcDbTrace
 10
804.7192688886601
 20
204.847751964223
 30
0.0
 11
803.5526022219935
 21
204.847751964223
 31
0.0
 12
804.1359355553268
 22
208.347751964223
 32
0.0
 13
804.1359355553268
 23
208.347751964223
 33
0.0
  0
SOLID
  5
9A1
330
1F
100
AcDbEntity
  8
1
  6
Continuous
370
    70
100
AcDbTrace
 10
803.5526022219935
 20
177.347751964223
 30
0.0
 11
804.7192688886601
 21
177.347751964223
 31
0.0
 12
804.1359355553268
 22
173.847751964223
 32
0.0
 13
804.1359355553268
 23
173.847751964223
 33
0.0
  0
MTEXT
  5
9A2
330
1F
100
AcDbEntity
  8
1
  6
Continuous
370
    13
100
AcDbMText
 10
802.0325931269503
 20
188.762587272596
 30
0.0
 40
3.5
 41
0.0
 71
     1
 72
     5
  1
\A1;34
  7
Arial
 11
-0.0000000000000006
 21
1.0
 31
0.0
 73
     1
 44
1.0
1001
ACAD
1000
MTEXTBEGIN
1070
    73
1070
     1
1070
    44
1040
1.0
1070
    74
1070
     0
1000
MTEXTEND
  0
LINE
  5
9AA
330
1F
100
AcDbEntity
  8
1
  6
Continuous
370
    35
100
AcDbLine
 10
815.535548817502
 20
208.347751964223
 30
0.0
 11
810.122632635818
 21
208.347751964223
 31
0.0
  0
LINE
  5
9AB
330
1F
100
AcDbEntity
  8
1
  6
Continuous
370
    35
100
AcDbLine
 10
815.535548817502
 20
179.2668130211149
 30
0.0
 11
810.122632635818
 21
179.2668130211149
 31
0.0
  0
LINE
  5
9AC
330
1F
100
AcDbEntity
  8
1
  6
Continuous
370
    35
100
AcDbLine
 10
812.1226326358179
 20
204.847751964223
 30
0.0
 11
812.1226326358179
 21
199.795004184347
 31
0.0
  0
LINE
  5
9AD
330
1F
100
AcDbEntity
  8
1
  6
Continuous
370
    35
100
AcDbLine
 10
812.1226326358179
 20
182.7668130211149
 30
0.0
 11
812.1226326358179
 21
187.819560800991
 31
0.0
  0
SOLID
  5
9AE
330
1F
100
AcDbEntity
  8
1
  6
Continuous
370
    70
100
AcDbTrace
 10
812.7059659691513
 20
204.847751964223
 30
0.0
 11
811.5392993024846
 21
204.847751964223
 31
0.0
 12
812.1226326358179
 22
208.347751964223
 32
0.0
 13
812.1226326358179
 23
208.347751964223
 33
0.0
  0
SOLID
  5
9AF
330
1F
100
AcDbEntity
  8
1
  6
Continuous
370
    70
100
AcDbTrace
 10
811.5392993024846
 20
182.7668130211149
 30
0.0
 11
812.7059659691513
 21
182.7668130211149
 31
0.0
 12
812.1226326358179
 22
179.2668130211149
 32
0.0
 13
812.1226326358179
 23
179.2668130211149
 33
0.0
  0
MTEXT
  5
9B0
330
1F
100
AcDbEntity
  8
1
  6
Continuous
370
    13
100
AcDbMText
 10
810.0192902074415
 20
189.5695608009909
 30
0.0
 40
3.5
 41
0.0
 71
     1
 72
     5
  1
\A1;29
  7
Arial
 11
-0.0000000000000006
 21
1.0
 31
0.0
 73
     1
 44
1.0
1001
ACAD
1000
MTEXTBEGIN
1070
    73
1070
     1
1070
    44
1040
1.0
1070
    74
1070
     0
1000
MTEXTEND
  0
LINE
  5
DD5
330
1F
100
AcDbEntity
  8
1
  6
Continuous
 62
   155
370
    35
100
AcDbLine
 10
839.4609408922805
 20
190.8942914168461
 30
0.0
 11
839.4609408922805
 21
195.5012125115999
 31
0.0
  0
LINE
  5
DD6
330
1F
100
AcDbEntity
  8
1
  6
Continuous
 62
   155
370
    35
100
AcDbLine
 10
820.9360071866353
 20
195.5012125115999
 30
0.0
 11
820.9360071866353
 21
190.8942914168461
 31
0.0
  0
LINE
  5
DD7
330
1F
100
AcDbEntity
  8
1
  6
Continuous
 62
   155
370
    35
100
AcDbLine
 10
837.198474039458
 20
195.7011820506311
 30
0.0
 11
837.198474039458
 21
195.5012125115999
 31
0.0
  0
LINE
  5
DD8
330
1F
100
AcDbEntity
  8
1
  6
Continuous
 62
   155
370
    35
100
AcDbLine
 10
839.4609408922805
 20
195.5012125115999
 30
0.0
 11
837.198474039458
 21
195.5012125115999
 31
0.0
  0
LINE
  5
DD9
330
1F
100
AcDbEntity
  8
1
  6
Continuous
 62
   155
370
    35
100
AcDbLine
 10
823.198474039458
 20
195.5012125115999
 30
0.0
 11
823.198474039458
 21
195.7011820506311
 31
0.0
  0
LINE
  5
DDA
330
1F
100
AcDbEntity
  8
1
  6
Continuous
 62
   155
370
    35
100
AcDbLine
 10
823.198474039458
 20
195.5012125115999
 30
0.0
 11
820.9360071866353
 21
195.5012125115999
 31
0.0
  0
LINE
  5
DDB
330
1F
100
AcDbEntity
  8
1
  6
Continuous
 62
   155
370
    35
100
AcDbLine
 10
837.198474039458
 20
190.8942914168461
 30
0.0
 11
837.198474039458
 21
190.6943218778149
 31
0.0
  0
LINE
  5
DDC
330
1F
100
AcDbEntity
  8
1
  6
Continuous
 62
   155
370
    35
100
AcDbLine
 10
837.198474039458
 20
190.8942914168461
 30
0.0
 11
839.4609408922805
 21
190.8942914168461
 31
0.0
  0
LINE
  5
DDD
330
1F
100
AcDbEntity
  8
1
  6
Continuous
 62
   155
370
    35
100
AcDbLine
 10
823.198474039458
 20
190.8942914168461
 30
0.0
 11
823.198474039458
 21
190.6943218778149
 31
0.0
  0
LINE
  5
DDE
330
1F
100
AcDbEntity
  8
1
  6
Continuous
 62
   155
370
    35
100
AcDbLine
 10
820.9360071866353
 20
190.8942914168461
 30
0.0
 11
823.198474039458
 21
190.8942914168461
 31
0.0
  0
LINE
  5
DDF
330
1F
100
AcDbEntity
  8
1
  6
Continuous
 62
   155
370
    35
100
AcDbLine
 10
820.7360148020224
 20
190.8942914168461
 30
0.0
 11
820.9360071866353
 21
190.8942914168461
 31
0.0
  0
LINE
  5
DE0
330
1F
100
AcDbEntity
  8
1
  6
Continuous
 62
   155
370
    35
100
AcDbLine
 10
839.6609332768933
 20
195.5012125115999
 30
0.0
 11
839.4609408922805
 21
195.5012125115999
 31
0.0
  0
LINE
  5
DE1
330
1F
100
AcDbEntity
  8
1
  6
Continuous
 62
   155
370
    35
100
AcDbLine
 10
839.4609408922805
 20
190.8942914168461
 30
0.0
 11
839.6609332768933
 21
190.8942914168461
 31
0.0
  0
LINE
  5
DE2
330
1F
100
AcDbEntity
  8
1
  6
Continuous
 62
   155
370
    35
100
AcDbLine
 10
820.9360071866353
 20
195.5012125115999
 30
0.0
 11
820.7360148020224
 21
195.5012125115999
 31
0.0
  0
LINE
  5
DE3
330
1F
100
AcDbEntity
  8
1
  6
Continuous
 62
   155
370
    35
100
AcDbLine
 10
826.0330133990091
 20
192.1629179983885
 30
0.0
 11
834.3639346799067
 21
192.1629179983885
 31
0.0
  0
LINE
  5
DE4
330
1F
100
AcDbEntity
  8
1
  6
Continuous
 62
   155
370
    35
100
AcDbLine
 10
834.3639346799067
 20
194.2325859300575
 30
0.0
 11
826.0330133990091
 21
194.2325859300575
 31
0.0
  0
LINE
  5
DE5
330
1F
100
AcDbEntity
  8
1
  6
Continuous
 62
   155
370
    35
100
AcDbLine
 10
834.8335416914741
 20
194.0611417465338
 30
0.0
 11
834.3639346799067
 21
194.2325859300574
 31
0.0
  0
LINE
  5
DE6
330
1F
100
AcDbEntity
  8
1
  6
Continuous
 62
   155
370
    35
100
AcDbLine
 10
826.0330133990091
 20
192.1629179983885
 30
0.0
 11
825.5634063874417
 21
192.3343621819122
 31
0.0
  0
LINE
  5
DE7
330
1F
100
AcDbEntity
  8
1
  6
Continuous
 62
   155
370
    35
100
AcDbLine
 10
826.0330133990091
 20
194.2325859300574
 30
0.0
 11
825.5634063874417
 21
194.0611417465338
 31
0.0
  0
LINE
  5
DE8
330
1F
100
AcDbEntity
  8
1
  6
Continuous
 62
   155
370
    35
100
AcDbLine
 10
834.8335416914741
 20
192.3343621819122
 30
0.0
 11
834.3639346799067
 21
192.1629179983885
 31
0.0
  0
LINE
  5
DE9
330
1F
100
AcDbEntity
  8
1
  6
Continuous
 62
   155
370
    70
100
AcDbLine
 10
834.5548968159077
 20
173.8913863031767
 30
0.0
 11
825.8420512630079
 21
173.8913863031767
 31
0.0
  0
LINE
  5
DEA
330
1F
100
AcDbEntity
  8
1
  6
Continuous
 62
   155
370
    70
100
AcDbLine
 10
821.498474039458
 20
179.0913863031768
 30
0.0
 11
822.8421654938154
 21
179.0913863031768
 31
0.0
  0
LINE
  5
DEB
330
1F
100
AcDbEntity
  8
1
  6
Continuous
 62
   155
370
    70
100
AcDbLine
 10
836.0548397005041
 20
177.5914434185805
 30
0.0
 11
836.0548397005041
 21
175.391329187773
 31
0.0
  0
LINE
  5
DEC
330
1F
100
AcDbEntity
  8
1
  6
Continuous
 62
   155
370
    70
100
AcDbLine
 10
838.898474039458
 20
179.0913863031768
 30
0.0
 11
837.5547825851004
 21
179.0913863031768
 31
0.0
  0
LINE
  5
DED
330
1F
100
AcDbEntity
  8
1
  6
Continuous
 62
   155
370
    70
100
AcDbLine
 10
824.3421083784117
 20
175.391329187773
 30
0.0
 11
824.3421083784117
 21
177.5914434185805
 31
0.0
  0
LINE
  5
DEE
330
1F
100
AcDbEntity
  8
1
  6
Continuous
 62
   155
370
    35
100
AcDbLine
 10
821.498474039458
 20
179.1071098962644
 30
0.0
 11
821.498474039458
 21
179.0913863031768
 31
0.0
  0
LINE
  5
DEF
330
1F
100
AcDbEntity
  8
1
  6
Continuous
 62
   155
370
    35
100
AcDbLine
 10
838.898474039458
 20
179.0913863031768
 30
0.0
 11
838.898474039458
 21
179.1071098962644
 31
0.0
  0
LINE
  5
DF0
330
1F
100
AcDbEntity
  8
1
  6
Continuous
 62
   155
370
    35
100
AcDbLine
 10
838.898474039458
 20
208.2883940321816
 30
0.0
 11
838.898474039458
 21
208.347751964223
 31
0.0
  0
LINE
  5
DF1
330
1F
100
AcDbEntity
  8
1
  6
Continuous
 62
   155
370
    35
100
AcDbLine
 10
821.4984740394578
 20
208.347751964223
 30
0.0
 11
821.4984740394578
 21
208.2883940321816
 31
0.0
  0
LINE
  5
DF5
330
1F
100
AcDbEntity
  8
1
  6
Continuous
 62
   155
370
    35
100
AcDbLine
 10
820.7421083784117
 20
179.847751964223
 30
0.0
 11
820.7578319714993
 21
179.847751964223
 31
0.0
  0
LINE
  5
DF6
330
1F
100
AcDbEntity
  8
1
  6
Continuous
 62
   155
370
    35
100
AcDbLine
 10
820.7360148020224
 20
190.8942914168461
 30
0.0
 11
820.7360148020224
 21
195.5012125115999
 31
0.0
  0
LINE
  5
DF7
330
1F
100
AcDbEntity
  8
1
  6
Continuous
 62
   155
370
    35
100
AcDbLine
 10
820.7578319714993
 20
207.5477519642231
 30
0.0
 11
820.6984740394579
 21
207.5477519642231
 31
0.0
  0
LINE
  5
DF8
330
1F
100
AcDbEntity
  8
1
  6
Continuous
 62
   155
370
    70
100
AcDbLine
 10
820.6984740394579
 20
190.2942914168461
 30
0.0
 11
820.6984740394579
 21
196.1012125115998
 31
0.0
  0
LINE
  5
DF9
330
1F
100
AcDbEntity
  8
1
  6
Continuous
 62
   155
370
    35
100
AcDbLine
 10
839.6391161074165
 20
179.847751964223
 30
0.0
 11
839.6548397005041
 21
179.847751964223
 31
0.0
  0
LINE
  5
DFC
330
1F
100
AcDbEntity
  8
1
  6
Continuous
 62
   155
370
    70
100
AcDbLine
 10
839.698474039458
 20
182.9988168558465
 30
0.0
 11
839.698474039458
 21
190.2942914168461
 31
0.0
  0
LINE
  5
DFD
330
1F
100
AcDbEntity
  8
1
  6
Continuous
 62
   155
370
    70
100
AcDbLine
 10
839.698474039458
 20
196.1012125115998
 30
0.0
 11
839.698474039458
 21
190.2942914168461
 31
0.0
  0
LINE
  5
DFE
330
1F
100
AcDbEntity
  8
1
  6
Continuous
 62
   155
370
    35
100
AcDbLine
 10
839.698474039458
 20
207.5477519642231
 30
0.0
 11
839.6391161074165
 21
207.5477519642231
 31
0.0
  0
LINE
  5
DFF
330
1F
100
AcDbEntity
  8
1
  6
Continuous
 62
   155
370
    35
100
AcDbLine
 10
839.6609332768933
 20
195.5012125115999
 30
0.0
 11
839.6609332768933
 21
190.8942914168461
 31
0.0
  0
LINE
  5
E00
330
1F
100
AcDbEntity
  8
1
  6
Continuous
 62
   155
370
    35
100
AcDbLine
 10
836.0391161074165
 20
175.4070527808607
 30
0.0
 11
836.0548397005041
 21
175.391329187773
 31
0.0
  0
LINE
  5
E01
330
1F
100
AcDbEntity
  8
1
  6
Continuous
 62
   155
370
    35
100
AcDbLine
 10
834.5548968159077
 20
173.8913863031767
 30
0.0
 11
834.5391732228202
 21
173.9071098962644
 31
0.0
  0
LINE
  5
E02
330
1F
100
AcDbEntity
  8
1
  6
Continuous
 62
   155
370
    35
100
AcDbLine
 10
836.0548397005041
 20
177.5914434185805
 30
0.0
 11
836.0391161074165
 21
177.6071670116682
 31
0.0
  0
LINE
  5
E03
330
1F
100
AcDbEntity
  8
1
  6
Continuous
 62
   155
370
    35
100
AcDbLine
 10
837.5390589920126
 20
179.1071098962644
 30
0.0
 11
837.5547825851004
 21
179.0913863031768
 31
0.0
  0
LINE
  5
E04
330
1F
100
AcDbEntity
  8
1
  6
Continuous
 62
   155
370
    35
100
AcDbLine
 10
825.8577748560956
 20
173.9071098962644
 30
0.0
 11
825.8420512630079
 21
173.8913863031767
 31
0.0
  0
LINE
  5
E05
330
1F
100
AcDbEntity
  8
1
  6
Continuous
 62
   155
370
    35
100
AcDbLine
 10
824.3421083784117
 20
175.391329187773
 30
0.0
 11
824.3578319714993
 21
175.4070527808607
 31
0.0
  0
LINE
  5
E06
330
1F
100
AcDbEntity
  8
1
  6
Continuous
 62
   155
370
    35
100
AcDbLine
 10
822.8421654938154
 20
179.0913863031768
 30
0.0
 11
822.857889086903
 21
179.1071098962644
 31
0.0
  0
LINE
  5
E07
330
1F
100
AcDbEntity
  8
1
  6
Continuous
 62
   155
370
    35
100
AcDbLine
 10
824.3578319714993
 20
177.6071670116682
 30
0.0
 11
824.3421083784117
 21
177.5914434185805
 31
0.0
  0
LINE
  5
E08
330
1F
100
AcDbEntity
  8
1
  6
Continuous
 62
   155
370
    70
100
AcDbLine
 10
834.9469493733746
 20
191.6629941508103
 30
0.0
 11
825.4499987055412
 21
191.6629941508103
 31
0.0
  0
LINE
  5
E09
330
1F
100
AcDbEntity
  8
1
  6
Continuous
 62
   155
370
    70
100
AcDbLine
 10
825.4499987055412
 20
194.7325097776356
 30
0.0
 11
834.9469493733746
 21
194.7325097776356
 31
0.0
  0
LINE
  5
E0A
330
1F
100
AcDbEntity
  8
1
  6
Continuous
 62
   155
370
    35
100
AcDbLine
 10
839.4575110671016
 20
190.6943218778149
 30
0.0
 11
837.198474039458
 21
190.6943218778149
 31
0.0
  0
LINE
  5
E0B
330
1F
100
AcDbEntity
  8
1
  6
Continuous
 62
   155
370
    35
100
AcDbLine
 10
837.198474039458
 20
195.7011820506311
 30
0.0
 11
839.4575110671016
 21
195.7011820506311
 31
0.0
  0
LINE
  5
E0C
330
1F
100
AcDbEntity
  8
1
  6
Continuous
 62
   155
370
    35
100
AcDbLine
 10
837.198474039458
 20
190.6943218778149
 30
0.0
 11
837.198474039458
 21
190.6575443883106
 31
0.0
  0
LINE
  5
E0D
330
1F
100
AcDbEntity
  8
1
  6
Continuous
 62
   155
370
    35
100
AcDbLine
 10
837.198474039458
 20
195.7011820506311
 30
0.0
 11
837.198474039458
 21
195.7379595401355
 31
0.0
  0
LINE
  5
E0E
330
1F
100
AcDbEntity
  8
1
  6
Continuous
 62
   155
370
    35
100
AcDbLine
 10
820.9394370118141
 20
195.7011820506311
 30
0.0
 11
823.198474039458
 21
195.7011820506311
 31
0.0
  0
LINE
  5
E0F
330
1F
100
AcDbEntity
  8
1
  6
Continuous
 62
   155
370
    35
100
AcDbLine
 10
823.198474039458
 20
195.7011820506311
 30
0.0
 11
823.198474039458
 21
195.7379595401355
 31
0.0
  0
LINE
  5
E10
330
1F
100
AcDbEntity
  8
1
  6
Continuous
 62
   155
370
    35
100
AcDbLine
 10
823.198474039458
 20
190.6943218778149
 30
0.0
 11
823.198474039458
 21
190.6575443883106
 31
0.0
  0
LINE
  5
E11
330
1F
100
AcDbEntity
  8
1
  6
Continuous
 62
   155
370
    35
100
AcDbLine
 10
823.198474039458
 20
190.6943218778149
 30
0.0
 11
820.9394370118141
 21
190.6943218778149
 31
0.0
  0
LINE
  5
E12
330
1F
100
AcDbEntity
  8
1
  6
Continuous
 62
   155
370
    35
100
AcDbLine
 10
839.6575034517145
 20
190.4943523387835
 30
0.0
 11
839.6391161074165
 21
190.4575748492793
 31
0.0
  0
LINE
  5
E13
330
1F
100
AcDbEntity
  8
1
  6
Continuous
 62
   155
370
    35
100
AcDbLine
 10
839.4391237228036
 20
190.6575443883106
 30
0.0
 11
839.4575110671016
 21
190.6943218778149
 31
0.0
  0
LINE
  5
E14
330
1F
100
AcDbEntity
  8
1
  6
Continuous
 62
   155
370
    35
100
AcDbLine
 10
820.9394370118141
 20
190.6943218778149
 30
0.0
 11
820.9578243561121
 21
190.6575443883106
 31
0.0
  0
LINE
  5
E15
330
1F
100
AcDbEntity
  8
1
  6
Continuous
 62
   155
370
    35
100
AcDbLine
 10
820.7578319714993
 20
190.4575748492793
 30
0.0
 11
820.7394446272013
 21
190.4943523387835
 31
0.0
  0
LINE
  5
E16
330
1F
100
AcDbEntity
  8
1
  6
Continuous
 62
   155
370
    35
100
AcDbLine
 10
839.4575110671016
 20
195.7011820506311
 30
0.0
 11
839.4391237228036
 21
195.7379595401355
 31
0.0
  0
LINE
  5
E17
330
1F
100
AcDbEntity
  8
1
  6
Continuous
 62
   155
370
    35
100
AcDbLine
 10
839.6391161074165
 20
195.9379290791666
 30
0.0
 11
839.6575034517145
 21
195.9011515896625
 31
0.0
  0
LINE
  5
E18
330
1F
100
AcDbEntity
  8
1
  6
Continuous
 62
   155
370
    35
100
AcDbLine
 10
820.7394446272013
 20
195.9011515896625
 30
0.0
 11
820.7578319714993
 21
195.9379290791666
 31
0.0
  0
LINE
  5
E19
330
1F
100
AcDbEntity
  8
1
  6
Continuous
 62
   155
370
    35
100
AcDbLine
 10
820.9578243561121
 20
195.7379595401355
 30
0.0
 11
820.9394370118141
 21
195.7011820506311
 31
0.0
  0
LINE
  5
E1A
330
1F
100
AcDbEntity
  8
1
  6
Continuous
 62
   155
370
    35
100
AcDbLine
 10
825.0817759194999
 20
191.493102863278
 30
0.0
 11
825.2300327046462
 21
191.3589099342598
 31
0.0
  0
LINE
  5
E1B
330
1F
100
AcDbEntity
  8
1
  6
Continuous
 62
   155
370
    35
100
AcDbLine
 10
823.198474039458
 20
190.6575443883106
 30
0.0
 11
823.198474039458
 21
190.4575748492793
 31
0.0
  0
LINE
  5
E1C
330
1F
100
AcDbEntity
  8
1
  6
Continuous
 62
   155
370
    35
100
AcDbLine
 10
820.9578243561121
 20
190.6575443883106
 30
0.0
 11
823.198474039458
 21
190.6575443883106
 31
0.0
  0
LINE
  5
E1D
330
1F
100
AcDbEntity
  8
1
  6
Continuous
 62
   155
370
    35
100
AcDbLine
 10
823.198474039458
 20
195.7379595401355
 30
0.0
 11
820.9578243561121
 21
195.7379595401355
 31
0.0
  0
LINE
  5
E1E
330
1F
100
AcDbEntity
  8
1
  6
Continuous
 62
   155
370
    35
100
AcDbLine
 10
820.9578243561121
 20
190.6575443883106
 30
0.0
 11
820.9578243561121
 21
190.4575748492793
 31
0.0
  0
LINE
  5
E1F
330
1F
100
AcDbEntity
  8
1
  6
Continuous
 62
   155
370
    35
100
AcDbLine
 10
820.7578319714993
 20
179.847751964223
 30
0.0
 11
820.7578319714993
 21
190.4575748492793
 31
0.0
  0
LINE
  5
E20
330
1F
100
AcDbEntity
  8
1
  6
Continuous
 62
   155
370
    35
100
AcDbLine
 10
820.7578319714993
 20
190.4575748492792
 30
0.0
 11
820.9578243561121
 21
190.4575748492792
 31
0.0
  0
LINE
  5
E21
330
1F
100
AcDbEntity
  8
1
  6
Continuous
 62
   155
370
    35
100
AcDbLine
 10
820.9578243561121
 20
195.9379290791666
 30
0.0
 11
820.9578243561121
 21
195.7379595401354
 31
0.0
  0
LINE
  5
E22
330
1F
100
AcDbEntity
  8
1
  6
Continuous
 62
   155
370
    35
100
AcDbLine
 10
825.4524178823656
 20
191.6575443883106
 30
0.0
 11
834.9445301965502
 21
191.6575443883106
 31
0.0
  0
LINE
  5
E23
330
1F
100
AcDbEntity
  8
1
  6
Continuous
 62
   155
370
    35
100
AcDbLine
 10
825.4524178823656
 20
191.4575748492793
 30
0.0
 11
825.4524178823656
 21
191.6575443883106
 31
0.0
  0
LINE
  5
E24
330
1F
100
AcDbEntity
  8
1
  6
Continuous
 62
   155
370
    35
100
AcDbLine
 10
834.9445301965502
 20
191.4575748492805
 30
0.0
 11
834.9445301965502
 21
191.6575443883117
 31
0.0
  0
LINE
  5
E25
330
1F
100
AcDbEntity
  8
1
  6
Continuous
 62
   155
370
    35
100
AcDbLine
 10
835.1669153742696
 20
191.3589099342598
 30
0.0
 11
835.3151721594157
 21
191.493102863278
 31
0.0
  0
LINE
  5
E26
330
1F
100
AcDbEntity
  8
1
  6
Continuous
 62
   155
370
    35
100
AcDbLine
 10
837.198474039458
 20
190.6575443883106
 30
0.0
 11
839.4391237228036
 21
190.6575443883106
 31
0.0
  0
LINE
  5
E27
330
1F
100
AcDbEntity
  8
1
  6
Continuous
 62
   155
370
    35
100
AcDbLine
 10
837.198474039458
 20
190.4575748492793
 30
0.0
 11
837.198474039458
 21
190.6575443883106
 31
0.0
  0
LINE
  5
E28
330
1F
100
AcDbEntity
  8
1
  6
Continuous
 62
   155
370
    35
100
AcDbLine
 10
825.8577748560956
 20
173.9071098962644
 30
0.0
 11
825.8577748560956
 21
174.1071022808774
 31
0.0
  0
LINE
  5
E29
330
1F
100
AcDbEntity
  8
1
  6
Continuous
 62
   155
370
    35
100
AcDbLine
 10
834.5391732228202
 20
173.9071098962644
 30
0.0
 11
825.8577748560956
 21
173.9071098962644
 31
0.0
  0
LINE
  5
E2A
330
1F
100
AcDbEntity
  8
1
  6
Continuous
 62
   155
370
    35
100
AcDbLine
 10
821.498474039458
 20
208.2883940321817
 30
0.0
 11
821.498474039458
 21
208.0884016475688
 31
0.0
  0
LINE
  5
E2B
330
1F
100
AcDbEntity
  8
1
  6
Continuous
 62
   155
370
    35
100
AcDbLine
 10
838.898474039458
 20
208.2883940321816
 30
0.0
 11
838.898474039458
 21
208.0884016475688
 31
0.0
  0
LINE
  5
E2C
330
1F
100
AcDbEntity
  8
1
  6
Continuous
 62
   155
370
    35
100
AcDbLine
 10
821.4984740394578
 20
208.2883940321816
 30
0.0
 11
838.898474039458
 21
208.2883940321816
 31
0.0
  0
LINE
  5
E2D
330
1F
100
AcDbEntity
  8
1
  6
Continuous
 62
   155
370
    35
100
AcDbLine
 10
839.6391161074165
 20
190.4575748492793
 30
0.0
 11
839.6391161074165
 21
179.847751964223
 31
0.0
  0
LINE
  5
E2E
330
1F
100
AcDbEntity
  8
1
  6
Continuous
 62
   155
370
    35
100
AcDbLine
 10
839.4391237228036
 20
190.4575748492793
 30
0.0
 11
839.4391237228036
 21
190.6575443883106
 31
0.0
  0
LINE
  5
E2F
330
1F
100
AcDbEntity
  8
1
  6
Continuous
 62
   155
370
    35
100
AcDbLine
 10
839.4391237228036
 20
190.4575748492793
 30
0.0
 11
839.6391161074165
 21
190.4575748492793
 31
0.0
  0
LINE
  5
E30
330
1F
100
AcDbEntity
  8
1
  6
Continuous
 62
   155
370
    35
100
AcDbLine
 10
820.7578319714993
 20
195.9379290791666
 30
0.0
 11
820.7578319714993
 21
207.5477519642231
 31
0.0
  0
LINE
  5
E31
330
1F
100
AcDbEntity
  8
1
  6
Continuous
 62
   155
370
    35
100
AcDbLine
 10
820.9578243561121
 20
195.9379290791666
 30
0.0
 11
820.7578319714993
 21
195.9379290791666
 31
0.0
  0
LINE
  5
E32
330
1F
100
AcDbEntity
  8
1
  6
Continuous
 62
   155
370
    35
100
AcDbLine
 10
820.9578243561121
 20
207.5477519642231
 30
0.0
 11
820.7578319714993
 21
207.5477519642231
 31
0.0
  0
LINE
  5
E33
330
1F
100
AcDbEntity
  8
1
  6
Continuous
 62
   155
370
    35
100
AcDbLine
 10
834.5391732228202
 20
173.9071098962644
 30
0.0
 11
834.5391732228202
 21
174.1071022808774
 31
0.0
  0
LINE
  5
E34
330
1F
100
AcDbEntity
  8
1
  6
Continuous
 62
   155
370
    35
100
AcDbLine
 10
824.3578319714993
 20
175.4070527808607
 30
0.0
 11
824.5578243561121
 21
175.4070527808607
 31
0.0
  0
LINE
  5
E35
330
1F
100
AcDbEntity
  8
1
  6
Continuous
 62
   155
370
    35
100
AcDbLine
 10
824.3578319714993
 20
175.4070527808607
 30
0.0
 11
824.3578319714993
 21
177.6071670116682
 31
0.0
  0
LINE
  5
E36
330
1F
100
AcDbEntity
  8
1
  6
Continuous
 62
   155
370
    35
100
AcDbLine
 10
839.6391161074165
 20
207.5477519642231
 30
0.0
 11
839.6391161074165
 21
195.9379290791666
 31
0.0
  0
LINE
  5
E37
330
1F
100
AcDbEntity
  8
1
  6
Continuous
 62
   155
370
    35
100
AcDbLine
 10
839.6391161074165
 20
207.5477519642231
 30
0.0
 11
839.4391237228035
 21
207.5477519642231
 31
0.0
  0
LINE
  5
E38
330
1F
100
AcDbEntity
  8
1
  6
Continuous
 62
   155
370
    35
100
AcDbLine
 10
820.7578319714993
 20
179.847751964223
 30
0.0
 11
820.9578243561121
 21
179.847751964223
 31
0.0
  0
LINE
  5
E39
330
1F
100
AcDbEntity
  8
1
  6
Continuous
 62
   155
370
    35
100
AcDbLine
 10
839.4391237228036
 20
179.847751964223
 30
0.0
 11
839.6391161074165
 21
179.847751964223
 31
0.0
  0
LINE
  5
E3A
330
1F
100
AcDbEntity
  8
1
  6
Continuous
 62
   155
370
    35
100
AcDbLine
 10
838.898474039458
 20
179.1071098962644
 30
0.0
 11
838.898474039458
 21
179.3071022808773
 31
0.0
  0
LINE
  5
E3B
330
1F
100
AcDbEntity
  8
1
  6
Continuous
 62
   155
370
    35
100
AcDbLine
 10
838.898474039458
 20
179.1071098962645
 30
0.0
 11
837.5390589920126
 21
179.1071098962645
 31
0.0
  0
LINE
  5
E3C
330
1F
100
AcDbEntity
  8
1
  6
Continuous
 62
   155
370
    35
100
AcDbLine
 10
837.5390589920126
 20
179.1071098962644
 30
0.0
 11
837.5390589920126
 21
179.3071022808773
 31
0.0
  0
LINE
  5
E3D
330
1F
100
AcDbEntity
  8
1
  6
Continuous
 62
   155
370
    35
100
AcDbLine
 10
836.0391161074165
 20
177.6071670116682
 30
0.0
 11
835.8391237228035
 21
177.6071670116682
 31
0.0
  0
LINE
  5
E3E
330
1F
100
AcDbEntity
  8
1
  6
Continuous
 62
   155
370
    35
100
AcDbLine
 10
836.0391161074165
 20
175.4070527808607
 30
0.0
 11
835.8391237228035
 21
175.4070527808607
 31
0.0
  0
LINE
  5
E3F
330
1F
100
AcDbEntity
  8
1
  6
Continuous
 62
   155
370
    35
100
AcDbLine
 10
836.0391161074165
 20
177.6071670116682
 30
0.0
 11
836.0391161074165
 21
175.4070527808607
 31
0.0
  0
LINE
  5
E40
330
1F
100
AcDbEntity
  8
1
  6
Continuous
 62
   155
370
    35
100
AcDbLine
 10
839.6391161074165
 20
195.9379290791666
 30
0.0
 11
839.4391237228036
 21
195.9379290791666
 31
0.0
  0
LINE
  5
E41
330
1F
100
AcDbEntity
  8
1
  6
Continuous
 62
   155
370
    35
100
AcDbLine
 10
824.3578319714993
 20
177.6071670116682
 30
0.0
 11
824.5578243561121
 21
177.6071670116682
 31
0.0
  0
LINE
  5
E42
330
1F
100
AcDbEntity
  8
1
  6
Continuous
 62
   155
370
    35
100
AcDbLine
 10
822.857889086903
 20
179.1071098962644
 30
0.0
 11
822.857889086903
 21
179.3071022808773
 31
0.0
  0
LINE
  5
E43
330
1F
100
AcDbEntity
  8
1
  6
Continuous
 62
   155
370
    35
100
AcDbLine
 10
821.498474039458
 20
179.3071022808773
 30
0.0
 11
821.498474039458
 21
179.1071098962644
 31
0.0
  0
LINE
  5
E44
330
1F
100
AcDbEntity
  8
1
  6
Continuous
 62
   155
370
    35
100
AcDbLine
 10
822.857889086903
 20
179.1071098962644
 30
0.0
 11
821.498474039458
 21
179.1071098962644
 31
0.0
  0
LINE
  5
E45
330
1F
100
AcDbEntity
  8
1
  6
Continuous
 62
   155
370
    35
100
AcDbLine
 10
839.4391237228036
 20
195.9379290791666
 30
0.0
 11
839.4391237228036
 21
207.5477519642231
 31
0.0
  0
LINE
  5
E46
330
1F
100
AcDbEntity
  8
1
  6
Continuous
 62
   155
370
    35
100
AcDbLine
 10
838.898474039458
 20
208.0884016475688
 30
0.0
 11
821.4984740394578
 21
208.0884016475688
 31
0.0
  0
LINE
  5
E47
330
1F
100
AcDbEntity
  8
1
  6
Continuous
 62
   155
370
    35
100
AcDbLine
 10
820.9578243561121
 20
207.5477519642231
 30
0.0
 11
820.9578243561121
 21
195.9379290791666
 31
0.0
  0
LINE
  5
E48
330
1F
100
AcDbEntity
  8
1
  6
Continuous
 62
   155
370
    35
100
AcDbLine
 10
820.9578243561121
 20
195.9379290791666
 30
0.0
 11
823.198474039458
 21
195.9379290791666
 31
0.0
  0
LINE
  5
E49
330
1F
100
AcDbEntity
  8
1
  6
Continuous
 62
   155
370
    35
100
AcDbLine
 10
823.198474039458
 20
195.9379290791666
 30
0.0
 11
823.198474039458
 21
195.7379595401355
 31
0.0
  0
LINE
  5
E4A
330
1F
100
AcDbEntity
  8
1
  6
Continuous
 62
   155
370
    35
100
AcDbLine
 10
825.2300327046462
 20
195.0365939941862
 30
0.0
 11
825.0817759194999
 21
194.9024010651679
 31
0.0
  0
LINE
  5
E4B
330
1F
100
AcDbEntity
  8
1
  6
Continuous
 62
   155
370
    35
100
AcDbLine
 10
825.4524178823647
 20
194.9379290791655
 30
0.0
 11
825.4524178823647
 21
194.7379595401343
 31
0.0
  0
LINE
  5
E4C
330
1F
100
AcDbEntity
  8
1
  6
Continuous
 62
   155
370
    35
100
AcDbLine
 10
834.9445301965502
 20
194.7379595401354
 30
0.0
 11
825.4524178823656
 21
194.7379595401354
 31
0.0
  0
LINE
  5
E4D
330
1F
100
AcDbEntity
  8
1
  6
Continuous
 62
   155
370
    35
100
AcDbLine
 10
834.9445301965504
 20
194.9379290791667
 30
0.0
 11
834.9445301965504
 21
194.7379595401354
 31
0.0
  0
LINE
  5
E4E
330
1F
100
AcDbEntity
  8
1
  6
Continuous
 62
   155
370
    35
100
AcDbLine
 10
825.4524178823656
 20
194.9379290791667
 30
0.0
 11
834.9445301965504
 21
194.9379290791667
 31
0.0
  0
LINE
  5
E4F
330
1F
100
AcDbEntity
  8
1
  6
Continuous
 62
   155
370
    35
100
AcDbLine
 10
839.4391237228036
 20
195.7379595401355
 30
0.0
 11
839.4391237228036
 21
195.9379290791666
 31
0.0
  0
LINE
  5
E50
330
1F
100
AcDbEntity
  8
1
  6
Continuous
 62
   155
370
    35
100
AcDbLine
 10
837.198474039458
 20
195.9379290791666
 30
0.0
 11
839.4391237228035
 21
195.9379290791666
 31
0.0
  0
LINE
  5
E51
330
1F
100
AcDbEntity
  8
1
  6
Continuous
 62
   155
370
    35
100
AcDbLine
 10
839.4391237228036
 20
195.7379595401355
 30
0.0
 11
837.198474039458
 21
195.7379595401355
 31
0.0
  0
LINE
  5
E52
330
1F
100
AcDbEntity
  8
1
  6
Continuous
 62
   155
370
    35
100
AcDbLine
 10
837.198474039458
 20
195.7379595401355
 30
0.0
 11
837.198474039458
 21
195.9379290791666
 31
0.0
  0
LINE
  5
E53
330
1F
100
AcDbEntity
  8
1
  6
Continuous
 62
   155
370
    35
100
AcDbLine
 10
835.3151721594157
 20
194.902401065168
 30
0.0
 11
835.1669153742696
 21
195.0365939941862
 31
0.0
  0
LINE
  5
E54
330
1F
100
AcDbEntity
  8
1
  6
Continuous
 62
   155
370
    70
100
AcDbLine
 10
837.6984740394608
 20
180.5913863031782
 30
0.0
 11
836.5548397005095
 21
180.5913863031812
 31
0.0
  0
LINE
  5
E55
330
1F
100
AcDbEntity
  8
1
  6
Continuous
 62
   155
370
    70
100
AcDbLine
 10
834.5548397005041
 20
178.5913863031812
 30
0.0
 11
834.5548397005041
 21
176.8913863031768
 31
0.0
  0
LINE
  5
E56
330
1F
100
AcDbEntity
  8
1
  6
Continuous
 62
   155
370
    70
100
AcDbLine
 10
834.054839700504
 20
176.3913863031767
 30
0.0
 11
826.3421083784116
 21
176.3913863031767
 31
0.0
  0
LINE
  5
E57
330
1F
100
AcDbEntity
  8
1
  6
Continuous
 62
   155
370
    70
100
AcDbLine
 10
825.8421083784117
 20
178.5913863031306
 30
0.0
 11
825.8421083784117
 21
176.8913863031768
 31
0.0
  0
LINE
  5
E58
330
1F
100
AcDbEntity
  8
1
  6
Continuous
 62
   155
370
    70
100
AcDbLine
 10
823.8421083784054
 20
180.5913863031307
 30
0.0
 11
822.6984740394637
 21
180.5913863031269
 31
0.0
  0
LINE
  5
E59
330
1F
100
AcDbEntity
  8
1
  6
Continuous
 62
   155
370
    70
100
AcDbLine
 10
822.1984740394621
 20
181.0913863031253
 30
0.0
 11
822.1984740394596
 21
181.8913863031752
 31
0.0
  0
LINE
  5
E5A
330
1F
100
AcDbEntity
  8
1
  6
Continuous
 62
   155
370
    70
100
AcDbLine
 10
822.6984740394595
 20
182.3913863031767
 30
0.0
 11
837.6984740394595
 21
182.3913863031767
 31
0.0
  0
LINE
  5
E5B
330
1F
100
AcDbEntity
  8
1
  6
Continuous
 62
   155
370
    70
100
AcDbLine
 10
838.1984740394594
 20
181.8913863031785
 30
0.0
 11
838.1984740394621
 21
181.0913863031798
 31
0.0
  0
LINE
  5
E5C
330
1F
100
AcDbEntity
  8
1
  6
Continuous
 62
   155
370
    35
100
AcDbLine
 10
820.9578243561121
 20
190.4575748492793
 30
0.0
 11
820.9578243561121
 21
179.847751964223
 31
0.0
  0
LINE
  5
E5D
330
1F
100
AcDbEntity
  8
1
  6
Continuous
 62
   155
370
    35
100
AcDbLine
 10
821.498474039458
 20
179.3071022808773
 30
0.0
 11
822.857889086903
 21
179.3071022808773
 31
0.0
  0
LINE
  5
E5E
330
1F
100
AcDbEntity
  8
1
  6
Continuous
 62
   155
370
    35
100
AcDbLine
 10
824.5578243561121
 20
177.6071670116682
 30
0.0
 11
824.5578243561121
 21
175.4070527808607
 31
0.0
  0
LINE
  5
E5F
330
1F
100
AcDbEntity
  8
1
  6
Continuous
 62
   155
370
    35
100
AcDbLine
 10
825.8577748560956
 20
174.1071022808774
 30
0.0
 11
834.5391732228202
 21
174.1071022808774
 31
0.0
  0
LINE
  5
E60
330
1F
100
AcDbEntity
  8
1
  6
Continuous
 62
   155
370
    35
100
AcDbLine
 10
835.8391237228035
 20
175.4070527808607
 30
0.0
 11
835.8391237228035
 21
177.6071670116682
 31
0.0
  0
LINE
  5
E61
330
1F
100
AcDbEntity
  8
1
  6
Continuous
 62
   155
370
    35
100
AcDbLine
 10
837.5390589920126
 20
179.3071022808773
 30
0.0
 11
838.898474039458
 21
179.3071022808773
 31
0.0
  0
LINE
  5
E62
330
1F
100
AcDbEntity
  8
1
  6
Continuous
 62
   155
370
    35
100
AcDbLine
 10
839.4391237228036
 20
179.847751964223
 30
0.0
 11
839.4391237228036
 21
190.4575748492793
 31
0.0
  0
LINE
  5
E63
330
1F
100
AcDbEntity
  8
1
  6
Continuous
 62
   155
370
    35
100
AcDbLine
 10
839.4391237228036
 20
190.4575748492793
 30
0.0
 11
837.198474039458
 21
190.4575748492793
 31
0.0
  0
LINE
  5
E64
330
1F
100
AcDbEntity
  8
1
  6
Continuous
 62
   155
370
    35
100
AcDbLine
 10
834.9445301965502
 20
191.4575748492793
 30
0.0
 11
825.4524178823656
 21
191.4575748492793
 31
0.0
  0
LINE
  5
E65
330
1F
100
AcDbEntity
  8
1
  6
Continuous
 62
   155
370
    35
100
AcDbLine
 10
823.198474039458
 20
190.4575748492793
 30
0.0
 11
820.9578243561121
 21
190.4575748492793
 31
0.0
  0
LINE
  5
E66
330
1F
100
AcDbEntity
  8
1
  6
Continuous
 62
   155
370
    70
100
AcDbLine
 10
835.998474039458
 20
192.397751964223
 30
0.0
 11
836.5056567695669
 21
192.397751964223
 31
0.0
  0
LINE
  5
E67
330
1F
100
AcDbEntity
  8
1
  6
Continuous
 62
   155
370
    70
100
AcDbLine
 10
824.3984740394578
 20
193.997751964223
 30
0.0
 11
823.8912913094051
 21
193.997751964223
 31
0.0
  0
LINE
  5
E68
330
1F
100
AcDbEntity
  8
1
  6
Continuous
 62
   155
370
    70
100
AcDbLine
 10
836.5056567695109
 20
193.997751964223
 30
0.0
 11
835.998474039458
 21
193.997751964223
 31
0.0
  0
LINE
  5
E69
330
1F
100
AcDbEntity
  8
1
  6
Continuous
 62
   155
370
    70
100
AcDbLine
 10
823.8912913093487
 20
192.397751964223
 30
0.0
 11
824.3984740394578
 21
192.397751964223
 31
0.0
  0
LINE
  5
E6A
330
1F
100
AcDbEntity
  8
1
  6
Continuous
 62
   155
370
    70
100
AcDbLine
 10
837.598474039458
 20
179.047751964223
 30
0.0
 11
838.898474039458
 21
179.047751964223
 31
0.0
  0
LINE
  5
E6B
330
1F
100
AcDbEntity
  8
1
  6
Continuous
 62
   155
370
    70
100
AcDbLine
 10
836.0984740394579
 20
175.3476948488192
 30
0.0
 11
836.0984740394579
 21
175.347751964223
 31
0.0
  0
LINE
  5
E6C
330
1F
100
AcDbEntity
  8
1
  6
Continuous
 62
   155
370
    70
100
AcDbLine
 10
836.0984740394579
 20
175.347751964223
 30
0.0
 11
836.0984740394579
 21
177.5475234721572
 31
0.0
  0
LINE
  5
E6D
330
1F
100
AcDbEntity
  8
1
  6
Continuous
 62
   155
370
    35
100
AcDbLine
 10
836.0984740394579
 20
177.5478090796267
 30
0.0
 11
836.0548397005041
 21
177.5914434185805
 31
0.0
  0
LINE
  5
E6E
330
1F
100
AcDbEntity
  8
1
  6
Continuous
 62
   155
370
    35
100
AcDbLine
 10
837.5547825851004
 20
179.0913863031768
 30
0.0
 11
837.5984169240542
 21
179.047751964223
 31
0.0
  0
LINE
  5
E6F
330
1F
100
AcDbEntity
  8
1
  6
Continuous
 62
   155
370
    70
100
AcDbLine
 10
824.2984740394579
 20
177.5475234721572
 30
0.0
 11
824.2984740394579
 21
175.347751964223
 31
0.0
  0
LINE
  5
E70
330
1F
100
AcDbEntity
  8
1
  6
Continuous
 62
   155
370
    70
100
AcDbLine
 10
824.2984740394579
 20
175.347751964223
 30
0.0
 11
824.2984740394579
 21
175.3476948488192
 31
0.0
  0
LINE
  5
E71
330
1F
100
AcDbEntity
  8
1
  6
Continuous
 62
   155
370
    35
100
AcDbLine
 10
838.898474039458
 20
179.047751964223
 30
0.0
 11
838.898474039458
 21
179.0913863031768
 31
0.0
  0
LINE
  5
E73
330
1F
100
AcDbEntity
  8
1
  6
Continuous
 62
   155
370
    70
100
AcDbLine
 10
820.6984740394579
 20
190.4042201497673
 30
0.0
 11
820.6984740394579
 21
179.847751964223
 31
0.0
  0
LINE
  5
E75
330
1F
100
AcDbEntity
  8
1
  6
Continuous
 62
   155
370
    35
100
AcDbLine
 10
839.6548397005041
 20
179.847751964223
 30
0.0
 11
839.698474039458
 21
179.847751964223
 31
0.0
  0
LINE
  5
E76
330
1F
100
AcDbEntity
  8
1
  6
Continuous
 62
   155
370
    70
100
AcDbLine
 10
839.698474039458
 20
179.847751964223
 30
0.0
 11
839.698474039458
 21
182.9988168558465
 31
0.0
  0
LINE
  5
E77
330
1F
100
AcDbEntity
  8
1
  6
Continuous
 62
   155
370
    35
100
AcDbLine
 10
824.2984740394579
 20
175.3476948488192
 30
0.0
 11
824.3421083784117
 21
175.391329187773
 31
0.0
  0
LINE
  5
E78
330
1F
100
AcDbEntity
  8
1
  6
Continuous
 62
   155
370
    35
100
AcDbLine
 10
825.8420512630079
 20
173.8913863031767
 30
0.0
 11
825.7984169240542
 21
173.847751964223
 31
0.0
  0
LINE
  5
E79
330
1F
100
AcDbEntity
  8
1
  6
Continuous
 62
   155
370
    70
100
AcDbLine
 10
825.7984169240542
 20
173.847751964223
 30
0.0
 11
825.7984740394579
 21
173.847751964223
 31
0.0
  0
LINE
  5
E7A
330
1F
100
AcDbEntity
  8
1
  6
Continuous
 62
   155
370
    70
100
AcDbLine
 10
834.5984740394579
 20
173.847751964223
 30
0.0
 11
834.5985311548618
 21
173.847751964223
 31
0.0
  0
LINE
  5
E7B
330
1F
100
AcDbEntity
  8
1
  6
Continuous
 62
   155
370
    70
100
AcDbLine
 10
821.498474039458
 20
179.047751964223
 30
0.0
 11
822.7984740394578
 21
179.047751964223
 31
0.0
  0
LINE
  5
E7D
330
1F
100
AcDbEntity
  8
1
  6
Continuous
 62
   155
370
    70
100
AcDbLine
 10
822.8421654938154
 20
179.0913863031768
 30
0.0
 11
821.498474039458
 21
179.0913863031768
 31
0.0
  0
LINE
  5
E7E
330
1F
100
AcDbEntity
  8
1
  6
Continuous
 62
   155
370
    70
100
AcDbLine
 10
824.3421083784117
 20
177.5914434185805
 30
0.0
 11
824.3421083784117
 21
175.391329187773
 31
0.0
  0
LINE
  5
E7F
330
1F
100
AcDbEntity
  8
1
  6
Continuous
 62
   155
370
    70
100
AcDbLine
 10
825.8420512630079
 20
173.8913863031767
 30
0.0
 11
834.5548968159077
 21
173.8913863031767
 31
0.0
  0
LINE
  5
E80
330
1F
100
AcDbEntity
  8
1
  6
Continuous
 62
   155
370
    70
100
AcDbLine
 10
836.0548397005041
 20
175.391329187773
 30
0.0
 11
836.0548397005041
 21
177.5914434185805
 31
0.0
  0
LINE
  5
E81
330
1F
100
AcDbEntity
  8
1
  6
Continuous
 62
   155
370
    70
100
AcDbLine
 10
837.5547825851004
 20
179.0913863031768
 30
0.0
 11
838.898474039458
 21
179.0913863031768
 31
0.0
  0
LINE
  5
E83
330
1F
100
AcDbEntity
  8
1
  6
Continuous
 62
   155
370
    35
100
AcDbLine
 10
822.7985311548616
 20
179.047751964223
 30
0.0
 11
822.8421654938154
 21
179.0913863031768
 31
0.0
  0
LINE
  5
E84
330
1F
100
AcDbEntity
  8
1
  6
Continuous
 62
   155
370
    35
100
AcDbLine
 10
824.3421083784117
 20
177.5914434185805
 30
0.0
 11
824.2984740394579
 21
177.5478090796267
 31
0.0
  0
LINE
  5
E85
330
1F
100
AcDbEntity
  8
1
  6
Continuous
 62
   155
370
    35
100
AcDbLine
 10
836.0548397005041
 20
175.391329187773
 30
0.0
 11
836.0984740394579
 21
175.3476948488192
 31
0.0
  0
LINE
  5
E86
330
1F
100
AcDbEntity
  8
1
  6
Continuous
 62
   155
370
    35
100
AcDbLine
 10
834.5985311548618
 20
173.847751964223
 30
0.0
 11
834.5548968159077
 21
173.8913863031767
 31
0.0
  0
LINE
  5
E87
330
1F
100
AcDbEntity
  8
1
  6
Continuous
 62
   155
370
    35
100
AcDbLine
 10
821.498474039458
 20
179.0913863031768
 30
0.0
 11
821.498474039458
 21
179.047751964223
 31
0.0
  0
LINE
  5
E88
330
1F
100
AcDbEntity
  8
1
  6
Continuous
 62
   155
370
    35
100
AcDbLine
 10
820.6984740394579
 20
179.847751964223
 30
0.0
 11
820.7421083784117
 21
179.847751964223
 31
0.0
  0
LINE
  5
E89
330
1F
100
AcDbEntity
  8
1
  6
Continuous
 62
   155
370
    70
100
AcDbLine
 10
833.7842557265796
 20
180.0089868223534
 30
0.0
 11
833.600395277517
 21
180.1449530104638
 31
0.0
  0
LINE
  5
E8A
330
1F
100
AcDbEntity
  8
1
  6
Continuous
 62
   155
370
    70
100
AcDbLine
 10
838.1984740394621
 20
181.0913863031798
 30
0.0
 11
838.1984740394594
 21
181.8913863031785
 31
0.0
  0
LINE
  5
E8B
330
1F
100
AcDbEntity
  8
1
  6
Continuous
 62
   155
370
    70
100
AcDbLine
 10
837.6984740394595
 20
182.3913863031767
 30
0.0
 11
822.6984740394595
 21
182.3913863031767
 31
0.0
  0
LINE
  5
E8C
330
1F
100
AcDbEntity
  8
1
  6
Continuous
 62
   155
370
    70
100
AcDbLine
 10
822.1984740394596
 20
181.8913863031752
 30
0.0
 11
822.1984740394621
 21
181.0913863031253
 31
0.0
  0
LINE
  5
E8D
330
1F
100
AcDbEntity
  8
1
  6
Continuous
 62
   155
370
    70
100
AcDbLine
 10
822.6984740394637
 20
180.5913863031269
 30
0.0
 11
823.8421083784054
 21
180.5913863031307
 31
0.0
  0
LINE
  5
E8E
330
1F
100
AcDbEntity
  8
1
  6
Continuous
 62
   155
370
    70
100
AcDbLine
 10
825.8421083784117
 20
176.8913863031768
 30
0.0
 11
825.8421083784117
 21
178.5913863031306
 31
0.0
  0
LINE
  5
E8F
330
1F
100
AcDbEntity
  8
1
  6
Continuous
 62
   155
370
    70
100
AcDbLine
 10
826.3421083784116
 20
176.3913863031767
 30
0.0
 11
834.054839700504
 21
176.3913863031767
 31
0.0
  0
LINE
  5
E90
330
1F
100
AcDbEntity
  8
1
  6
Continuous
 62
   155
370
    70
100
AcDbLine
 10
834.5548397005041
 20
176.8913863031768
 30
0.0
 11
834.5548397005041
 21
178.5913863031812
 31
0.0
  0
LINE
  5
E91
330
1F
100
AcDbEntity
  8
1
  6
Continuous
 62
   155
370
    70
100
AcDbLine
 10
836.5548397005095
 20
180.5913863031812
 30
0.0
 11
837.6984740394608
 21
180.5913863031782
 31
0.0
  0
LINE
  5
E92
330
1F
100
AcDbEntity
  8
1
  6
Continuous
 62
   155
370
    70
100
AcDbLine
 10
831.898921241355
 20
179.2297141589255
 30
0.0
 11
831.8359162063311
 21
179.5095376834742
 31
0.0
  0
LINE
  5
E93
330
1F
100
AcDbEntity
  8
1
  6
Continuous
 62
   155
370
    70
100
AcDbLine
 10
831.8359162063311
 20
179.5095376834742
 30
0.0
 11
831.86828680531
 21
179.8076818078977
 31
0.0
  0
LINE
  5
E94
330
1F
100
AcDbEntity
  8
1
  6
Continuous
 62
   155
370
    70
100
AcDbLine
 10
831.86828680531
 20
179.8076818078977
 30
0.0
 11
831.9967944564689
 21
180.0570443145415
 31
0.0
  0
LINE
  5
E95
330
1F
100
AcDbEntity
  8
1
  6
Continuous
 62
   155
370
    70
100
AcDbLine
 10
831.9967944564689
 20
180.0570443145415
 30
0.0
 11
832.2263949246032
 21
180.2597166074102
 31
0.0
  0
LINE
  5
E96
330
1F
100
AcDbEntity
  8
1
  6
Continuous
 62
   155
370
    70
100
AcDbLine
 10
832.2263949246032
 20
180.2597166074102
 30
0.0
 11
832.5475374340586
 21
180.3972817387362
 31
0.0
  0
LINE
  5
E97
330
1F
100
AcDbEntity
  8
1
  6
Continuous
 62
   155
370
    70
100
AcDbLine
 10
832.5475374340586
 20
180.3972817387362
 30
0.0
 11
832.9405796211819
 21
180.4537317006612
 31
0.0
  0
LINE
  5
E98
330
1F
100
AcDbEntity
  8
1
  6
Continuous
 62
   155
370
    70
100
AcDbLine
 10
832.9405796211819
 20
180.4537317006612
 30
0.0
 11
833.3522155706834
 21
180.4297853102874
 31
0.0
  0
LINE
  5
E99
330
1F
100
AcDbEntity
  8
1
  6
Continuous
 62
   155
370
    70
100
AcDbLine
 10
833.3522155706834
 20
180.4297853102874
 30
0.0
 11
833.7034108317215
 21
180.319242049771
 31
0.0
  0
LINE
  5
E9A
330
1F
100
AcDbEntity
  8
1
  6
Continuous
 62
   155
370
    70
100
AcDbLine
 10
833.7034108317215
 20
180.319242049771
 30
0.0
 11
833.9651191106051
 21
180.1271635842479
 31
0.0
  0
LINE
  5
E9B
330
1F
100
AcDbEntity
  8
1
  6
Continuous
 62
   155
370
    70
100
AcDbLine
 10
833.9651191106051
 20
180.1271635842479
 30
0.0
 11
833.7842557265796
 21
180.0089868223534
 31
0.0
  0
LINE
  5
E9C
330
1F
100
AcDbEntity
  8
1
  6
Continuous
 62
   155
370
    70
100
AcDbLine
 10
833.600395277517
 20
180.1449530104638
 30
0.0
 11
833.3537203732916
 21
180.2250874474852
 31
0.0
  0
LINE
  5
E9D
330
1F
100
AcDbEntity
  8
1
  6
Continuous
 62
   155
370
    70
100
AcDbLine
 10
833.3537203732916
 20
180.2250874474852
 30
0.0
 11
833.0614179500612
 21
180.2530219281812
 31
0.0
  0
LINE
  5
E9E
330
1F
100
AcDbEntity
  8
1
  6
Continuous
 62
   155
370
    70
100
AcDbLine
 10
833.0614179500612
 20
180.2530219281812
 30
0.0
 11
832.7447559447223
 21
180.2316539504456
 31
0.0
  0
LINE
  5
E9F
330
1F
100
AcDbEntity
  8
1
  6
Continuous
 62
   155
370
    70
100
AcDbLine
 10
832.7447559447223
 20
180.2316539504456
 30
0.0
 11
832.4658500214823
 21
180.1526311039208
 31
0.0
  0
LINE
  5
EA0
330
1F
100
AcDbEntity
  8
1
  6
Continuous
 62
   155
370
    70
100
AcDbLine
 10
832.4658500214823
 20
180.1526311039208
 30
0.0
 11
832.2470301058922
 21
180.018518452866
 31
0.0
  0
LINE
  5
EA1
330
1F
100
AcDbEntity
  8
1
  6
Continuous
 62
   155
370
    70
100
AcDbLine
 10
832.2470301058922
 20
180.018518452866
 30
0.0
 11
832.1049122349453
 21
179.8431466348012
 31
0.0
  0
LINE
  5
EA2
330
1F
100
AcDbEntity
  8
1
  6
Continuous
 62
   155
370
    70
100
AcDbLine
 10
832.1049122349453
 20
179.8431466348012
 30
0.0
 11
832.0446493622224
 21
179.628121665712
 31
0.0
  0
LINE
  5
EA3
330
1F
100
AcDbEntity
  8
1
  6
Continuous
 62
   155
370
    70
100
AcDbLine
 10
832.0446493622224
 20
179.628121665712
 30
0.0
 11
832.0651832898331
 21
179.3928222058903
 31
0.0
  0
LINE
  5
EA4
330
1F
100
AcDbEntity
  8
1
  6
Continuous
 62
   155
370
    70
100
AcDbLine
 10
832.0651832898331
 20
179.3928222058903
 30
0.0
 11
832.1663404135659
 21
179.1968581520301
 31
0.0
  0
LINE
  5
EA5
330
1F
100
AcDbEntity
  8
1
  6
Continuous
 62
   155
370
    70
100
AcDbLine
 10
832.1663404135659
 20
179.1968581520301
 30
0.0
 11
832.3496907011154
 21
179.0459865027886
 31
0.0
  0
LINE
  5
EA6
330
1F
100
AcDbEntity
  8
1
  6
Continuous
 62
   155
370
    70
100
AcDbLine
 10
832.3496907011154
 20
179.0459865027886
 30
0.0
 11
832.5985847591249
 21
178.9450126291015
 31
0.0
  0
LINE
  5
EA7
330
1F
100
AcDbEntity
  8
1
  6
Continuous
 62
   155
370
    70
100
AcDbLine
 10
832.5985847591249
 20
178.9450126291015
 30
0.0
 11
832.8982554593643
 21
178.8982028363412
 31
0.0
  0
LINE
  5
EA8
330
1F
100
AcDbEntity
  8
1
  6
Continuous
 62
   155
370
    70
100
AcDbLine
 10
832.8982554593643
 20
178.8982028363412
 30
0.0
 11
833.2331642506504
 21
178.911249656107
 31
0.0
  0
LINE
  5
EA9
330
1F
100
AcDbEntity
  8
1
  6
Continuous
 62
   155
370
    70
100
AcDbLine
 10
833.2331642506504
 20
178.911249656107
 30
0.0
 11
833.5319801296062
 21
178.9926326952068
 31
0.0
  0
LINE
  5
EAA
330
1F
100
AcDbEntity
  8
1
  6
Continuous
 62
   155
370
    70
100
AcDbLine
 10
833.5319801296062
 20
178.9926326952068
 30
0.0
 11
833.7578410380096
 21
179.1440444752063
 31
0.0
  0
LINE
  5
EAB
330
1F
100
AcDbEntity
  8
1
  6
Continuous
 62
   155
370
    70
100
AcDbLine
 10
833.7578410380096
 20
179.1440444752063
 30
0.0
 11
833.9375636966408
 21
179.0252963491639
 31
0.0
  0
LINE
  5
EAC
330
1F
100
AcDbEntity
  8
1
  6
Continuous
 62
   155
370
    70
100
AcDbLine
 10
833.9375636966408
 20
179.0252963491639
 30
0.0
 11
833.6947597964369
 21
178.8524616455547
 31
0.0
  0
LINE
  5
EAD
330
1F
100
AcDbEntity
  8
1
  6
Continuous
 62
   155
370
    70
100
AcDbLine
 10
833.6947597964369
 20
178.8524616455547
 30
0.0
 11
833.3729820375454
 21
178.73620840216
 31
0.0
  0
LINE
  5
EAE
330
1F
100
AcDbEntity
  8
1
  6
Continuous
 62
   155
370
    70
100
AcDbLine
 10
833.3729820375454
 20
178.73620840216
 30
0.0
 11
832.9953399422187
 21
178.6935302728826
 31
0.0
  0
LINE
  5
EAF
330
1F
100
AcDbEntity
  8
1
  6
Continuous
 62
   155
370
    70
100
AcDbLine
 10
832.9953399422187
 20
178.6935302728826
 30
0.0
 11
832.6170566153988
 21
178.7306545554862
 31
0.0
  0
LINE
  5
EB0
330
1F
100
AcDbEntity
  8
1
  6
Continuous
 62
   155
370
    70
100
AcDbLine
 10
832.6170566153988
 20
178.7306545554862
 30
0.0
 11
832.2977313288708
 21
178.8385712045767
 31
0.0
  0
LINE
  5
EB1
330
1F
100
AcDbEntity
  8
1
  6
Continuous
 62
   155
370
    70
100
AcDbLine
 10
832.2977313288708
 20
178.8385712045767
 30
0.0
 11
832.052266707006
 21
179.0073703052168
 31
0.0
  0
LINE
  5
EB2
330
1F
100
AcDbEntity
  8
1
  6
Continuous
 62
   155
370
    70
100
AcDbLine
 10
832.052266707006
 20
179.0073703052168
 30
0.0
 11
831.898921241355
 21
179.2297141589255
 31
0.0
  0
LINE
  5
EB3
330
1F
100
AcDbEntity
  8
1
  6
Continuous
 62
   155
370
    70
100
AcDbLine
 10
827.3939975817425
 20
178.7104526390215
 30
0.0
 11
826.3965694778713
 21
180.4384534191095
 31
0.0
  0
LINE
  5
EB4
330
1F
100
AcDbEntity
  8
1
  6
Continuous
 62
   155
370
    70
100
AcDbLine
 10
826.3965694778713
 20
180.4384534191095
 30
0.0
 11
826.6321896166797
 21
180.4384534191095
 31
0.0
  0
LINE
  5
EB5
330
1F
100
AcDbEntity
  8
1
  6
Continuous
 62
   155
370
    70
100
AcDbLine
 10
826.6321896166797
 20
180.4384534191104
 30
0.0
 11
827.4695942232707
 21
178.9896045278461
 31
0.0
  0
LINE
  5
EB6
330
1F
100
AcDbEntity
  8
1
  6
Continuous
 62
   155
370
    70
100
AcDbLine
 10
827.4695942232707
 20
178.9896045278461
 30
0.0
 11
827.9113105089694
 21
179.7869423231428
 31
0.0
  0
LINE
  5
EB7
330
1F
100
AcDbEntity
  8
1
  6
Continuous
 62
   155
370
    70
100
AcDbLine
 10
827.9113105089694
 20
179.7869423231428
 30
0.0
 11
827.5399865657067
 21
180.4384534191095
 31
0.0
  0
LINE
  5
EB8
330
1F
100
AcDbEntity
  8
1
  6
Continuous
 62
   155
370
    70
100
AcDbLine
 10
827.5399865657067
 20
180.4384534191095
 30
0.0
 11
827.7733798646377
 21
180.4384534191095
 31
0.0
  0
LINE
  5
EB9
330
1F
100
AcDbEntity
  8
1
  6
Continuous
 62
   155
370
    70
100
AcDbLine
 10
827.7733798646377
 20
180.4384534191095
 30
0.0
 11
828.6109814928096
 21
178.9892921075666
 31
0.0
  0
LINE
  5
EBA
330
1F
100
AcDbEntity
  8
1
  6
Continuous
 62
   155
370
    70
100
AcDbLine
 10
828.6109814928096
 20
178.9892921075666
 30
0.0
 11
829.4214246331526
 21
180.4384534191097
 31
0.0
  0
LINE
  5
EBB
330
1F
100
AcDbEntity
  8
1
  6
Continuous
 62
   155
370
    70
100
AcDbLine
 10
829.4214246331526
 20
180.4384534191097
 30
0.0
 11
829.6563343835654
 21
180.4384534191097
 31
0.0
  0
LINE
  5
EBC
330
1F
100
AcDbEntity
  8
1
  6
Continuous
 62
   155
370
    70
100
AcDbLine
 10
829.6563343835654
 20
180.4384534191097
 30
0.0
 11
828.6867398838431
 21
178.7104526390213
 31
0.0
  0
LINE
  5
EBD
330
1F
100
AcDbEntity
  8
1
  6
Continuous
 62
   155
370
    70
100
AcDbLine
 10
828.6867398838431
 20
178.7104526390213
 30
0.0
 11
828.535171667365
 21
178.7104526390213
 31
0.0
  0
LINE
  5
EBE
330
1F
100
AcDbEntity
  8
1
  6
Continuous
 62
   155
370
    70
100
AcDbLine
 10
828.535171667365
 20
178.7104526390213
 30
0.0
 11
828.0344117689477
 21
179.5794810534958
 31
0.0
  0
LINE
  5
EBF
330
1F
100
AcDbEntity
  8
1
  6
Continuous
 62
   155
370
    70
100
AcDbLine
 10
828.0344117689477
 20
179.5794810534958
 30
0.0
 11
827.5437247074641
 21
178.7104526390215
 31
0.0
  0
LINE
  5
EC0
330
1F
100
AcDbEntity
  8
1
  6
Continuous
 62
   155
370
    70
100
AcDbLine
 10
827.5437247074641
 20
178.7104526390215
 30
0.0
 11
827.3939975817425
 21
178.7104526390215
 31
0.0
  0
LINE
  5
EC1
330
1F
100
AcDbEntity
  8
1
  6
Continuous
 62
   155
370
    70
100
AcDbLine
 10
829.9276522815977
 20
179.2254998758762
 30
0.0
 11
829.611661351555
 21
178.7104526390215
 31
0.0
  0
LINE
  5
EC2
330
1F
100
AcDbEntity
  8
1
  6
Continuous
 62
   155
370
    70
100
AcDbLine
 10
829.611661351555
 20
178.7104526390215
 30
0.0
 11
829.3580273163474
 21
178.7104526390215
 31
0.0
  0
LINE
  5
EC3
330
1F
100
AcDbEntity
  8
1
  6
Continuous
 62
   155
370
    70
100
AcDbLine
 10
829.3580273163474
 20
178.7104526390215
 30
0.0
 11
830.4331123779926
 21
180.4384590151341
 31
0.0
  0
LINE
  5
EC4
330
1F
100
AcDbEntity
  8
1
  6
Continuous
 62
   155
370
    70
100
AcDbLine
 10
830.4331123779926
 20
180.4384590151341
 30
0.0
 11
830.5933488196652
 21
180.4384590151341
 31
0.0
  0
LINE
  5
EC5
330
1F
100
AcDbEntity
  8
1
  6
Continuous
 62
   155
370
    70
100
AcDbLine
 10
830.5933488196652
 20
180.4384590151341
 30
0.0
 11
831.629664704369
 21
178.7104526390222
 31
0.0
  0
LINE
  5
EC6
330
1F
100
AcDbEntity
  8
1
  6
Continuous
 62
   155
370
    70
100
AcDbLine
 10
831.629664704369
 20
178.7104526390222
 30
0.0
 11
831.3861035061638
 21
178.7104526390222
 31
0.0
  0
LINE
  5
EC7
330
1F
100
AcDbEntity
  8
1
  6
Continuous
 62
   155
370
    70
100
AcDbLine
 10
831.3861035061638
 20
178.710452639022
 30
0.0
 11
831.0753333920825
 21
179.2255003531883
 31
0.0
  0
LINE
  5
EC8
330
1F
100
AcDbEntity
  8
1
  6
Continuous
 62
   155
370
    70
100
AcDbLine
 10
831.0753333920825
 20
179.2255003531883
 30
0.0
 11
829.9276522815977
 21
179.2254998758762
 31
0.0
  0
LINE
  5
EC9
330
1F
100
AcDbEntity
  8
1
  6
Continuous
 62
   155
370
    70
100
AcDbLine
 10
830.056411302357
 20
179.4300570986418
 30
0.0
 11
830.9535646582869
 21
179.4300561129491
 31
0.0
  0
LINE
  5
ECA
330
1F
100
AcDbEntity
  8
1
  6
Continuous
 62
   155
370
    70
100
AcDbLine
 10
830.5132130638746
 20
180.1620496591281
 30
0.0
 11
830.056411302357
 21
179.4300570986418
 31
0.0
  0
LINE
  5
ECB
330
1F
100
AcDbEntity
  8
1
  6
Continuous
 62
   155
370
    70
100
AcDbLine
 10
830.953564684605
 20
179.4300561287814
 30
0.0
 11
830.5132134186196
 21
180.1620498725348
 31
0.0
  0
LINE
  5
ECC
330
1F
100
AcDbEntity
  8
2
  6
Continuous
 62
   155
370
    35
100
AcDbLine
 10
832.948474039458
 20
169.025470714223
 30
0.0
 11
832.948474039458
 21
173.847642589223
 31
0.0
  0
LINE
  5
ECD
330
1F
100
AcDbEntity
  8
2
  6
Continuous
 62
   155
370
    35
100
AcDbLine
 10
827.448474039458
 20
169.025470714223
 30
0.0
 11
827.448474039458
 21
173.847642589223
 31
0.0
  0
LINE
  5
EE8
330
1F
100
AcDbEntity
  8
1
  6
Continuous
 62
   155
370
    70
100
AcDbLine
 10
839.698474039458
 20
196.1012125115998
 30
0.0
 11
839.698474039458
 21
207.5477519642231
 31
0.0
  0
LINE
  5
EE9
330
1F
100
AcDbEntity
  8
1
  6
Continuous
 62
   155
370
    70
100
AcDbLine
 10
825.7984740394579
 20
173.847751964223
 30
0.0
 11
834.5984740394579
 21
173.847751964223
 31
0.0
  0
LINE
  5
EEA
330
1F
100
AcDbEntity
  8
1
  6
Continuous
 62
   155
370
    70
100
AcDbLine
 10
820.6984740394579
 20
207.5477519642231
 30
0.0
 11
820.6984740394579
 21
196.1012125115998
 31
0.0
  0
LINE
  5
EEB
330
1F
100
AcDbEntity
  8
1
  6
Continuous
 62
   155
370
    70
100
AcDbLine
 10
838.898474039458
 20
208.347751964223
 30
0.0
 11
821.4984740394578
 21
208.347751964223
 31
0.0
  0
ARC
  5
EF2
330
1F
100
AcDbEntity
  8
1
  6
Continuous
 62
   155
370
    70
100
AcDbCircle
 10
823.198474039458
 20
193.1977519642231
 30
0.0
 40
1.550030465608781
100
AcDbArc
 50
20.58165357643124
 51
339.4183464235687
  0
ARC
  5
EF3
330
1F
100
AcDbEntity
  8
1
  6
Continuous
 62
   155
370
    70
100
AcDbCircle
 10
837.198474039458
 20
193.1977519642231
 30
0.0
 40
1.550030465608781
100
AcDbArc
 50
194.5968755973344
 51
165.4031244026639
  0
CIRCLE
  5
EF4
330
1F
100
AcDbEntity
  8
1
  6
Continuous
 62
   155
370
    35
100
AcDbCircle
 10
837.198474039458
 20
193.1977519642231
 30
0.0
 40
1.825117710408899
  0
CIRCLE
  5
EF5
330
1F
100
AcDbEntity
  8
1
  6
Continuous
 62
   155
370
    35
100
AcDbCircle
 10
837.198474039458
 20
193.1977519642231
 30
0.0
 40
1.62514817137762
  0
CIRCLE
  5
EF6
330
1F
100
AcDbEntity
  8
1
  6
Continuous
 62
   155
370
    35
100
AcDbCircle
 10
823.198474039458
 20
193.1977519642231
 30
0.0
 40
1.825117710408899
  0
CIRCLE
  5
EF7
330
1F
100
AcDbEntity
  8
1
  6
Continuous
 62
   155
370
    35
100
AcDbCircle
 10
823.198474039458
 20
193.1977519642231
 30
0.0
 40
1.62514817137762
  0
ARC
  5
EF8
330
1F
100
AcDbEntity
  8
1
  6
Continuous
 62
   155
370
    35
100
AcDbCircle
 10
837.198474039458
 20
193.1977519642231
 30
0.0
 40
2.303460547376861
100
AcDbArc
 50
90.0
 51
270.0
  0
ARC
  5
EF9
330
1F
100
AcDbEntity
  8
1
  6
Continuous
 62
   155
370
    35
100
AcDbCircle
 10
823.198474039458
 20
193.1977519642231
 30
0.0
 40
2.303460547376861
100
AcDbArc
 50
270.0
 51
90.0
  0
ARC
  5
EFA
330
1F
100
AcDbEntity
  8
1
  6
Continuous
 62
   155
370
    35
100
AcDbCircle
 10
823.198474039458
 20
193.1977519642231
 30
0.0
 40
3.017531228950171
100
AcDbArc
 50
339.9438671625579
 51
20.0561328374429
  0
ARC
  5
EFB
330
1F
100
AcDbEntity
  8
1
  6
Continuous
 62
   155
370
    35
100
AcDbCircle
 10
837.198474039458
 20
193.1977519642231
 30
0.0
 40
3.017531228950171
100
AcDbArc
 50
159.9438671625571
 51
200.0561328374429
  0
ARC
  5
EFC
330
1F
100
AcDbEntity
  8
1
  6
Continuous
 62
   155
370
    70
100
AcDbCircle
 10
821.4984740394578
 20
179.847751964223
 30
0.0
 40
0.7563656610462062
100
AcDbArc
 50
180.0
 51
270.0
  0
ARC
  5
EFD
330
1F
100
AcDbEntity
  8
1
  6
Continuous
 62
   155
370
    70
100
AcDbCircle
 10
838.898474039458
 20
179.8477519642229
 30
0.0
 40
0.7563656610462061
100
AcDbArc
 50
270.0
 51
0.0
  0
ARC
  5
EFE
330
1F
100
AcDbEntity
  8
1
  6
Continuous
 62
   155
370
    70
100
AcDbCircle
 10
838.898474039458
 20
207.5477519642231
 30
0.0
 40
0.8
100
AcDbArc
 50
0.0
 51
90.0
  0
ARC
  5
EFF
330
1F
100
AcDbEntity
  8
1
  6
Continuous
 62
   155
370
    70
100
AcDbCircle
 10
821.498474039458
 20
207.5477519642231
 30
0.0
 40
0.8
100
AcDbArc
 50
90.0
 51
180.0
  0
ARC
  5
F00
330
1F
100
AcDbEntity
  8
1
  6
Continuous
 62
   155
370
    70
100
AcDbCircle
 10
823.198474039458
 20
193.1977519642231
 30
0.0
 40
2.517607381371976
100
AcDbArc
 50
339.9438671625579
 51
20.0561328374429
  0
ARC
  5
F01
330
1F
100
AcDbEntity
  8
1
  6
Continuous
 62
   155
370
    35
100
AcDbCircle
 10
823.198474039458
 20
193.1977519642231
 30
0.0
 40
2.50343008640814
100
AcDbArc
 50
270.0
 51
90.0
  0
ARC
  5
F02
330
1F
100
AcDbEntity
  8
1
  6
Continuous
 62
   155
370
    70
100
AcDbCircle
 10
837.198474039458
 20
193.1977519642231
 30
0.0
 40
2.517607381371976
100
AcDbArc
 50
159.9438671625571
 51
200.0561328374429
  0
ARC
  5
F03
330
1F
100
AcDbEntity
  8
1
  6
Continuous
 62
   155
370
    35
100
AcDbCircle
 10
837.198474039458
 20
193.1977519642231
 30
0.0
 40
2.50343008640814
100
AcDbArc
 50
90.0
 51
270.0
  0
ARC
  5
F04
330
1F
100
AcDbEntity
  8
1
  6
Continuous
 62
   155
370
    70
100
AcDbCircle
 10
823.198474039458
 20
193.1977519642231
 30
0.0
 40
2.540207575912403
100
AcDbArc
 50
270.0
 51
317.8505415744443
  0
ARC
  5
F05
330
1F
100
AcDbEntity
  8
1
  6
Continuous
 62
   155
370
    35
100
AcDbCircle
 10
821.498474039458
 20
207.5477519642231
 30
0.0
 40
0.7406420679585273
100
AcDbArc
 50
90.0
 51
180.0
  0
ARC
  5
F06
330
1F
100
AcDbEntity
  8
1
  6
Continuous
 62
   155
370
    70
100
AcDbCircle
 10
837.198474039458
 20
193.1977519642231
 30
0.0
 40
2.540207575912403
100
AcDbArc
 50
222.1494584255557
 51
270.0
  0
ARC
  5
F07
330
1F
100
AcDbEntity
  8
1
  6
Continuous
 62
   155
370
    35
100
AcDbCircle
 10
838.898474039458
 20
207.5477519642231
 30
0.0
 40
0.7406420679585273
100
AcDbArc
 50
0.0
 51
90.0
  0
ARC
  5
F08
330
1F
100
AcDbEntity
  8
1
  6
Continuous
 62
   155
370
    35
100
AcDbCircle
 10
821.498474039458
 20
179.847751964223
 30
0.0
 40
0.7406420679585273
100
AcDbArc
 50
180.0
 51
270.0
  0
ARC
  5
F09
330
1F
100
AcDbEntity
  8
1
  6
Continuous
 62
   155
370
    35
100
AcDbCircle
 10
838.898474039458
 20
179.847751964223
 30
0.0
 40
0.7406420679585273
100
AcDbArc
 50
270.0
 51
0.0
  0
ARC
  5
F0A
330
1F
100
AcDbEntity
  8
1
  6
Continuous
 62
   155
370
    35
100
AcDbCircle
 10
838.898474039458
 20
207.5477519642231
 30
0.0
 40
0.5406496833456929
100
AcDbArc
 50
0.0
 51
90.0
  0
ARC
  5
F0B
330
1F
100
AcDbEntity
  8
1
  6
Continuous
 62
   155
370
    35
100
AcDbCircle
 10
821.498474039458
 20
207.5477519642231
 30
0.0
 40
0.5406496833456929
100
AcDbArc
 50
90.0
 51
180.0
  0
ARC
  5
F0C
330
1F
100
AcDbEntity
  8
1
  6
Continuous
 62
   155
370
    70
100
AcDbCircle
 10
823.198474039458
 20
193.1977519642231
 30
0.0
 40
2.540207575912403
100
AcDbArc
 50
42.14945842555566
 51
90.0
  0
ARC
  5
F0D
330
1F
100
AcDbEntity
  8
1
  6
Continuous
 62
   155
370
    35
100
AcDbCircle
 10
823.198474039458
 20
193.1977519642231
 30
0.0
 40
2.740177114943681
100
AcDbArc
 50
42.14945842555566
 51
90.0
  0
ARC
  5
F0E
330
1F
100
AcDbEntity
  8
1
  6
Continuous
 62
   155
370
    35
100
AcDbCircle
 10
837.198474039458
 20
193.1977519642231
 30
0.0
 40
2.740177114943681
100
AcDbArc
 50
90.0
 51
137.8505415744437
  0
ARC
  5
F0F
330
1F
100
AcDbEntity
  8
1
  6
Continuous
 62
   155
370
    70
100
AcDbCircle
 10
837.198474039458
 20
193.1977519642231
 30
0.0
 40
2.540207575912403
100
AcDbArc
 50
90.0
 51
137.8505415744437
  0
ARC
  5
F10
330
1F
100
AcDbEntity
  8
1
  6
Continuous
 62
   155
370
    70
100
AcDbCircle
 10
836.554839700504
 20
178.5913863031812
 30
0.0
 40
2.0
100
AcDbArc
 50
89.99999999983716
 51
180.0
  0
ARC
  5
F11
330
1F
100
AcDbEntity
  8
1
  6
Continuous
 62
   155
370
    70
100
AcDbCircle
 10
834.054839700504
 20
176.8913863031768
 30
0.0
 40
0.5
100
AcDbArc
 50
270.0
 51
0.0
  0
ARC
  5
F12
330
1F
100
AcDbEntity
  8
1
  6
Continuous
 62
   155
370
    70
100
AcDbCircle
 10
826.3421083784116
 20
176.8913863031768
 30
0.0
 40
0.5
100
AcDbArc
 50
180.0
 51
270.0
  0
ARC
  5
F13
330
1F
100
AcDbEntity
  8
1
  6
Continuous
 62
   155
370
    70
100
AcDbCircle
 10
823.8421083784116
 20
178.5913863031306
 30
0.0
 40
2.0
100
AcDbArc
 50
0.0
 51
90.00000000018239
  0
ARC
  5
F14
330
1F
100
AcDbEntity
  8
1
  6
Continuous
 62
   155
370
    70
100
AcDbCircle
 10
822.6984740394621
 20
181.0913863031269
 30
0.0
 40
0.5
100
AcDbArc
 50
180.000000000184
 51
270.0000000001824
  0
ARC
  5
F15
330
1F
100
AcDbEntity
  8
1
  6
Continuous
 62
   155
370
    70
100
AcDbCircle
 10
822.6984740394595
 20
181.8913863031768
 30
0.0
 40
0.5
100
AcDbArc
 50
90.0
 51
180.000000000184
  0
ARC
  5
F16
330
1F
100
AcDbEntity
  8
1
  6
Continuous
 62
   155
370
    70
100
AcDbCircle
 10
837.6984740394595
 20
181.8913863031768
 30
0.0
 40
0.5
100
AcDbArc
 50
0.0
 51
90.0
  0
ARC
  5
F17
330
1F
100
AcDbEntity
  8
1
  6
Continuous
 62
   155
370
    70
100
AcDbCircle
 10
837.698474039462
 20
181.0913863031782
 30
0.0
 40
0.5
100
AcDbArc
 50
269.9999999998372
 51
0.0000000001840142
  0
ARC
  5
F18
330
1F
100
AcDbEntity
  8
1
  6
Continuous
 62
   155
370
    35
100
AcDbCircle
 10
821.498474039458
 20
179.847751964223
 30
0.0
 40
0.5406496833456929
100
AcDbArc
 50
180.0
 51
270.0
  0
ARC
  5
F19
330
1F
100
AcDbEntity
  8
1
  6
Continuous
 62
   155
370
    35
100
AcDbCircle
 10
838.898474039458
 20
179.847751964223
 30
0.0
 40
0.5406496833456929
100
AcDbArc
 50
270.0
 51
0.0
  0
ARC
  5
F1A
330
1F
100
AcDbEntity
  8
1
  6
Continuous
 62
   155
370
    35
100
AcDbCircle
 10
837.198474039458
 20
193.1977519642231
 30
0.0
 40
2.740177114943681
100
AcDbArc
 50
222.1494584255557
 51
270.0
  0
ARC
  5
F1B
330
1F
100
AcDbEntity
  8
1
  6
Continuous
 62
   155
370
    35
100
AcDbCircle
 10
823.198474039458
 20
193.1977519642231
 30
0.0
 40
2.740177114943681
100
AcDbArc
 50
270.0
 51
317.8505415744443
  0
ARC
  5
F1C
330
1F
100
AcDbEntity
  8
1
  6
Continuous
 62
   155
370
    70
100
AcDbCircle
 10
823.198474039458
 20
193.1977519642231
 30
0.0
 40
0.9999999999999996
100
AcDbArc
 50
57.79577249602749
 51
302.2042275039725
  0
ARC
  5
F1D
330
1F
100
AcDbEntity
  8
1
  6
Continuous
 62
   155
370
    70
100
AcDbCircle
 10
823.8912943624855
 20
192.097751964223
 30
0.0
 40
0.3
100
AcDbArc
 50
90.00058310614596
 51
122.2042275039725
  0
ARC
  5
F1E
330
1F
100
AcDbEntity
  8
1
  6
Continuous
 62
   155
370
    70
100
AcDbCircle
 10
836.5056537164303
 20
192.097751964223
 30
0.0
 40
0.3
100
AcDbArc
 50
57.79577249602749
 51
89.99941689385405
  0
ARC
  5
F1F
330
1F
100
AcDbEntity
  8
1
  6
Continuous
 62
   155
370
    70
100
AcDbCircle
 10
836.5056537164303
 20
194.297751964223
 30
0.0
 40
0.3
100
AcDbArc
 50
270.0005830954438
 51
302.2042275039725
  0
ARC
  5
F20
330
1F
100
AcDbEntity
  8
1
  6
Continuous
 62
   155
370
    70
100
AcDbCircle
 10
837.1984740394589
 20
193.1977519642231
 30
0.0
 40
0.9999999999999996
100
AcDbArc
 50
237.7957724960274
 51
122.2042275039725
  0
ARC
  5
F21
330
1F
100
AcDbEntity
  8
1
  6
Continuous
 62
   155
370
    70
100
AcDbCircle
 10
824.3984740394578
 20
194.297751964223
 30
0.0
 40
0.3
100
AcDbArc
 50
270.0
 51
292.3018092176698
  0
ARC
  5
F22
330
1F
100
AcDbEntity
  8
1
  6
Continuous
 62
   155
370
    70
100
AcDbCircle
 10
835.998474039458
 20
192.097751964223
 30
0.0
 40
0.3
100
AcDbArc
 50
90.0
 51
112.3018092176697
  0
ARC
  5
F23
330
1F
100
AcDbEntity
  8
1
  6
Continuous
 62
   155
370
    70
100
AcDbCircle
 10
823.8912943624855
 20
194.297751964223
 30
0.0
 40
0.3
100
AcDbArc
 50
237.7957724960274
 51
269.9994169045692
  0
ARC
  5
F24
330
1F
100
AcDbEntity
  8
1
  6
Continuous
 62
   155
370
    70
100
AcDbCircle
 10
835.998474039458
 20
194.297751964223
 30
0.0
 40
0.3
100
AcDbArc
 50
247.6981907823302
 51
270.0
  0
ARC
  5
F25
330
1F
100
AcDbEntity
  8
1
  6
Continuous
 62
   155
370
    70
100
AcDbCircle
 10
824.3984740394578
 20
192.097751964223
 30
0.0
 40
0.3
100
AcDbArc
 50
67.69819078233024
 51
90.0
  0
ARC
  5
F26
330
1F
100
AcDbEntity
  8
1
  6
Continuous
 62
   155
370
    70
100
AcDbCircle
 10
838.898474039458
 20
179.847751964223
 30
0.0
 40
0.8
100
AcDbArc
 50
270.0
 51
0.0
  0
ARC
  5
F27
330
1F
100
AcDbEntity
  8
1
  6
Continuous
 62
   155
370
    70
100
AcDbCircle
 10
825.7984740394579
 20
175.347751964223
 30
0.0
 40
1.500000000000033
100
AcDbArc
 50
180.002181626954
 51
269.9978183730427
  0
ARC
  5
F28
330
1F
100
AcDbEntity
  8
1
  6
Continuous
 62
   155
370
    70
100
AcDbCircle
 10
838.898474039458
 20
179.8477519642229
 30
0.0
 40
0.7563656610462061
100
AcDbArc
 50
270.0
 51
0.0
  0
ARC
  5
F29
330
1F
100
AcDbEntity
  8
1
  6
Continuous
 62
   155
370
    70
100
AcDbCircle
 10
834.598474039458
 20
175.3477519642227
 30
0.0
 40
1.50000000000003
100
AcDbArc
 50
270.0021816269508
 51
359.9978183730467
  0
ARC
  5
F2A
330
1F
100
AcDbEntity
  8
1
  6
Continuous
 62
   155
370
    70
100
AcDbCircle
 10
821.4984740394578
 20
179.847751964223
 30
0.0
 40
0.7563656610462062
100
AcDbArc
 50
180.0
 51
270.0
  0
ARC
  5
F2B
330
1F
100
AcDbEntity
  8
1
  6
Continuous
 62
   155
370
    70
100
AcDbCircle
 10
821.498474039458
 20
179.847751964223
 30
0.0
 40
0.8
100
AcDbArc
 50
180.0
 51
270.0
  0
ARC
  5
F2C
330
1F
100
AcDbEntity
  8
1
  6
Continuous
 62
   155
370
    70
100
AcDbCircle
 10
837.6984740394595
 20
181.8913863031768
 30
0.0
 40
0.5
100
AcDbArc
 50
0.0000000001840142
 51
90.0
  0
ARC
  5
F2D
330
1F
100
AcDbEntity
  8
1
  6
Continuous
 62
   155
370
    70
100
AcDbCircle
 10
822.6984740394595
 20
181.8913863031768
 30
0.0
 40
0.5
100
AcDbArc
 50
90.0
 51
180.000000000184
  0
ARC
  5
F2E
330
1F
100
AcDbEntity
  8
1
  6
Continuous
 62
   155
370
    70
100
AcDbCircle
 10
822.6984740394621
 20
181.0913863031269
 30
0.0
 40
0.5
100
AcDbArc
 50
180.000000000184
 51
270.0000000001824
  0
ARC
  5
F2F
330
1F
100
AcDbEntity
  8
1
  6
Continuous
 62
   155
370
    70
100
AcDbCircle
 10
823.8421083784116
 20
178.5913863031306
 30
0.0
 40
2.0
100
AcDbArc
 50
0.0
 51
90.00000000018239
  0
ARC
  5
F30
330
1F
100
AcDbEntity
  8
1
  6
Continuous
 62
   155
370
    70
100
AcDbCircle
 10
826.3421083784116
 20
176.8913863031768
 30
0.0
 40
0.5
100
AcDbArc
 50
180.0
 51
270.0
  0
ARC
  5
F31
330
1F
100
AcDbEntity
  8
1
  6
Continuous
 62
   155
370
    70
100
AcDbCircle
 10
834.054839700504
 20
176.8913863031768
 30
0.0
 40
0.5
100
AcDbArc
 50
270.0
 51
0.0
  0
ARC
  5
F32
330
1F
100
AcDbEntity
  8
1
  6
Continuous
 62
   155
370
    70
100
AcDbCircle
 10
836.554839700504
 20
178.5913863031812
 30
0.0
 40
2.0
100
AcDbArc
 50
89.99999999983716
 51
180.0
  0
ARC
  5
F33
330
1F
100
AcDbEntity
  8
1
  6
Continuous
 62
   155
370
    70
100
AcDbCircle
 10
837.698474039462
 20
181.0913863031782
 30
0.0
 40
0.5
100
AcDbArc
 50
269.9999999998372
 51
0.0
  0
CIRCLE
  5
F34
330
1F
100
AcDbEntity
  8
2
  6
Continuous
 62
   155
370
    70
100
AcDbCircle
 10
830.1984740394622
 20
162.0477519642217
 30
0.0
 40
7.5
  0
CIRCLE
  5
F35
330
1F
100
AcDbEntity
  8
2
  6
Continuous
 62
   155
370
    35
100
AcDbCircle
 10
830.1984740394622
 20
162.0477519642217
 30
0.0
 40
6.999999999999999
  0
CIRCLE
  5
F36
330
1F
100
AcDbEntity
  8
2
  6
Continuous
 62
   155
370
    70
100
AcDbCircle
 10
830.198474039461
 20
162.0477519642217
 30
0.0
 40
3.852715173889061
  0
CIRCLE
  5
F37
330
1F
100
AcDbEntity
  8
2
  6
Continuous
 62
   155
370
    70
100
AcDbCircle
 10
830.198474039461
 20
162.0477519642217
 30
0.0
 40
5.352715173889062
  0
ELLIPSE
  5
F40
330
1F
100
AcDbEntity
  8
1
  6
Continuous
 62
   155
370
    35
100
AcDbEllipse
 10
820.9394979337517
 20
190.8942914168477
 30
0.0
 11
-0.0000000000000002
 21
0.2000000000022729
 31
0.0
210
0.0
220
0.0
230
1.0
 40
0.0174537355814987
 41
1.570796326794896
 42
3.124139361062893
1001
ACAD_OBJECT_CHANGE_GUID
1070
     0
1071
        0
1070
     0
1070
     0
1070
     0
1070
     0
1070
     0
1070
     0
1070
     0
1070
     0
1070
     0
1070
     0
1070
     0
1071
        0
1070
     0
1070
     0
1070
     0
1070
     0
1070
     0
1070
     0
1070
     0
1070
     0
1070
     0
1070
     0
  0
ELLIPSE
  5
F41
330
1F
100
AcDbEntity
  8
1
  6
Continuous
 62
   155
370
    35
100
AcDbEllipse
 10
839.4574501451641
 20
195.5012125115991
 30
0.0
 11
-0.0000000000000002
 21
0.2000000000012329
 31
0.0
210
0.0
220
0.0
230
1.0
 40
0.0174537355815264
 41
4.712388980384688
 42
6.265732014654771
1001
ACAD_OBJECT_CHANGE_GUID
1070
     0
1071
        0
1070
     0
1070
     0
1070
     0
1070
     0
1070
     0
1070
     0
1070
     0
1070
     0
1070
     0
1070
     0
1070
     0
1071
        0
1070
     0
1070
     0
1070
     0
1070
     0
1070
     0
1070
     0
1070
     0
1070
     0
1070
     0
1070
     0
  0
ELLIPSE
  5
F42
330
1F
100
AcDbEntity
  8
1
  6
Continuous
 62
   155
370
    35
100
AcDbEllipse
 10
839.4574501451641
 20
190.8942914168457
 30
0.0
 11
-0.0000000000000002
 21
0.1999999999994674
 31
0.0
210
0.0
220
0.0
230
1.0
 40
0.0174537355815465
 41
3.159045946109409
 42
4.712388980384688
1001
ACAD_OBJECT_CHANGE_GUID
1070
     0
1071
        0
1070
     0
1070
     0
1070
     0
1070
     0
1070
     0
1070
     0
1070
     0
1070
     0
1070
     0
1070
     0
1070
     0
1071
        0
1070
     0
1070
     0
1070
     0
1070
     0
1070
     0
1070
     0
1070
     0
1070
     0
1070
     0
1070
     0
  0
ELLIPSE
  5
F43
330
1F
100
AcDbEntity
  8
1
  6
Continuous
 62
   155
370
    35
100
AcDbEllipse
 10
820.9394979337515
 20
195.5012125116009
 30
0.0
 11
-0.0000000000000002
 21
0.1999999999984765
 31
0.0
210
0.0
220
0.0
230
1.0
 40
0.0174537355815218
 41
0.0174532925148974
 42
1.570796326794896
1001
ACAD_OBJECT_CHANGE_GUID
1070
     0
1071
        0
1070
     0
1070
     0
1070
     0
1070
     0
1070
     0
1070
     0
1070
     0
1070
     0
1070
     0
1070
     0
1070
     0
1071
        0
1070
     0
1070
     0
1070
     0
1070
     0
1070
     0
1070
     0
1070
     0
1070
     0
1070
     0
1070
     0
  0
ELLIPSE
  5
F44
330
1F
100
AcDbEntity
  8
1
  6
Continuous
 62
   155
370
    35
100
AcDbEllipse
 10
820.7395055491387
 20
190.894291416844
 30
0.0
 11
-0.0000000000000005
 21
0.3999999999970902
 31
0.0
210
0.0
220
0.0
230
1.0
 40
0.0087268677907609
 41
1.570796326794896
 42
3.124139361074447
1001
ACAD_OBJECT_CHANGE_GUID
1070
     0
1071
        0
1070
     0
1070
     0
1070
     0
1070
     0
1070
     0
1070
     0
1070
     0
1070
     0
1070
     0
1070
     0
1070
     0
1071
        0
1070
     0
1070
     0
1070
     0
1070
     0
1070
     0
1070
     0
1070
     0
1070
     0
1070
     0
1070
     0
  0
ELLIPSE
  5
F45
330
1F
100
AcDbEntity
  8
1
  6
Continuous
 62
   155
370
    35
100
AcDbEllipse
 10
820.7395055491387
 20
195.5012125116019
 30
0.0
 11
-0.0000000000000005
 21
0.3999999999971031
 31
0.0
210
0.0
220
0.0
230
1.0
 40
0.0087268677907611
 41
0.0174532925151123
 42
1.570796326794896
1001
ACAD_OBJECT_CHANGE_GUID
1070
     0
1071
        0
1070
     0
1070
     0
1070
     0
1070
     0
1070
     0
1070
     0
1070
     0
1070
     0
1070
     0
1070
     0
1070
     0
1071
        0
1070
     0
1070
     0
1070
     0
1070
     0
1070
     0
1070
     0
1070
     0
1070
     0
1070
     0
1070
     0
  0
ELLIPSE
  5
F46
330
1F
100
AcDbEntity
  8
1
  6
Continuous
 62
   155
370
    35
100
AcDbEllipse
 10
839.6574425297769
 20
195.5012125115965
 30
0.0
 11
-0.0000000000000005
 21
0.4000000000045658
 31
0.0
210
0.0
220
0.0
230
1.0
 40
0.0087268677907493
 41
4.712388980384688
 42
6.265732014652592
1001
ACAD_OBJECT_CHANGE_GUID
1070
     0
1071
        0
1070
     0
1070
     0
1070
     0
1070
     0
1070
     0
1070
     0
1070
     0
1070
     0
1070
     0
1070
     0
1070
     0
1071
        0
1070
     0
1070
     0
1070
     0
1070
     0
1070
     0
1070
     0
1070
     0
1070
     0
1070
     0
1070
     0
  0
ELLIPSE
  5
F47
330
1F
100
AcDbEntity
  8
1
  6
Continuous
 62
   155
370
    35
100
AcDbEllipse
 10
839.6574425297769
 20
190.894291416844
 30
0.0
 11
-0.0000000000000005
 21
0.3999999999970989
 31
0.0
210
0.0
220
0.0
230
1.0
 40
0.0087268677907616
 41
3.159045946104936
 42
4.712388980384688
1001
ACAD_OBJECT_CHANGE_GUID
1070
     0
1071
        0
1070
     0
1070
     0
1070
     0
1070
     0
1070
     0
1070
     0
1070
     0
1070
     0
1070
     0
1070
     0
1070
     0
1071
        0
1070
     0
1070
     0
1070
     0
1070
     0
1070
     0
1070
     0
1070
     0
1070
     0
1070
     0
1070
     0
  0
ELLIPSE
  5
F48
330
1F
100
AcDbEntity
  8
1
  6
Continuous
 62
   155
370
    70
100
AcDbEllipse
 10
834.5547825829255
 20
175.3914434207555
 30
0.0000000000000163
 11
1.060740946696333
 21
-1.060740946696333
 31
-0.0000000000000001
210
0.0
220
-0.0000000000000001
230
1.0
 40
0.9999238504775703
 41
5.497825219993075
 42
7.068545394366094
1001
ACAD_OBJECT_CHANGE_GUID
1070
     0
1071
        0
1070
     0
1070
     0
1070
     0
1070
     0
1070
     0
1070
     0
1070
     0
1070
     0
1070
     0
1070
     0
1070
     0
1071
        0
1070
     0
1070
     0
1070
     0
1070
     0
1070
     0
1070
     0
1070
     0
1070
     0
1070
     0
1070
     0
  0
ELLIPSE
  5
F49
330
1F
100
AcDbEntity
  8
1
  6
Continuous
 62
   155
370
    70
100
AcDbEllipse
 10
837.5548968180828
 20
177.5913291855982
 30
0.0000000000000167
 11
1.060740946696333
 21
-1.060740946696333
 31
-0.0000000000000001
210
0.0
220
-0.0000000000000001
230
1.0
 40
0.9999238504775703
 41
2.356232566403283
 42
3.926952740776301
1001
ACAD_OBJECT_CHANGE_GUID
1070
     0
1071
        0
1070
     0
1070
     0
1070
     0
1070
     0
1070
     0
1070
     0
1070
     0
1070
     0
1070
     0
1070
     0
1070
     0
1071
        0
1070
     0
1070
     0
1070
     0
1070
     0
1070
     0
1070
     0
1070
     0
1070
     0
1070
     0
1070
     0
  0
ELLIPSE
  5
F4A
330
1F
100
AcDbEntity
  8
1
  6
Continuous
 62
   155
370
    70
100
AcDbEllipse
 10
825.8421654959903
 20
175.3914434207555
 30
0.0
 11
-1.060740946696333
 21
-1.060740946696334
 31
-0.0000000000000001
210
0.0
220
-0.0000000000000001
230
1.0
 40
0.9999238504775703
 41
5.497825219993078
 42
7.068545394366094
1001
ACAD_OBJECT_CHANGE_GUID
1070
     0
1071
        0
1070
     0
1070
     0
1070
     0
1070
     0
1070
     0
1070
     0
1070
     0
1070
     0
1070
     0
1070
     0
1070
     0
1071
        0
1070
     0
1070
     0
1070
     0
1070
     0
1070
     0
1070
     0
1070
     0
1070
     0
1070
     0
1070
     0
  0
ELLIPSE
  5
F4B
330
1F
100
AcDbEntity
  8
1
  6
Continuous
 62
   155
370
    70
100
AcDbEllipse
 10
822.8420512608332
 20
177.5913291855982
 30
0.0
 11
-1.060740946696333
 21
-1.060740946696334
 31
-0.0000000000000001
210
0.0
220
-0.0000000000000001
230
1.0
 40
0.9999238504775703
 41
2.356232566403285
 42
3.926952740776301
1001
ACAD_OBJECT_CHANGE_GUID
1070
     0
1071
        0
1070
     0
1070
     0
1070
     0
1070
     0
1070
     0
1070
     0
1070
     0
1070
     0
1070
     0
1070
     0
1070
     0
1071
        0
1070
     0
1070
     0
1070
     0
1070
     0
1070
     0
1070
     0
1070
     0
1070
     0
1070
     0
1070
     0
  0
ELLIPSE
  5
F4C
330
1F
100
AcDbEntity
  8
1
  6
Continuous
 62
   155
370
    35
100
AcDbEllipse
 10
839.4575110671016
 20
190.4943523387836
 30
0.0
 11
0.1788881628778456
 21
-0.0894372695367507
 31
0.0
210
0.0
220
0.0
230
1.0
 40
0.9998096356151558
 41
0.4636932991202346
 42
2.034337326870229
1001
ACAD_OBJECT_CHANGE_GUID
1070
     0
1071
        0
1070
     0
1070
     0
1070
     0
1070
     0
1070
     0
1070
     0
1070
     0
1070
     0
1070
     0
1070
     0
1070
     0
1071
        0
1070
     0
1070
     0
1070
     0
1070
     0
1070
     0
1070
     0
1070
     0
1070
     0
1070
     0
1070
     0
  0
ELLIPSE
  5
F4D
330
1F
100
AcDbEntity
  8
1
  6
Continuous
 62
   155
370
    35
100
AcDbEllipse
 10
820.9394370118141
 20
190.4943523387835
 30
0.0
 11
0.1788881628778453
 21
0.0894372695367514
 31
0.0
210
0.0
220
0.0
230
1.0
 40
0.999809635615156
 41
1.107255326719549
 42
2.677899354469539
1001
ACAD_OBJECT_CHANGE_GUID
1070
     0
1071
        0
1070
     0
1070
     0
1070
     0
1070
     0
1070
     0
1070
     0
1070
     0
1070
     0
1070
     0
1070
     0
1070
     0
1071
        0
1070
     0
1070
     0
1070
     0
1070
     0
1070
     0
1070
     0
1070
     0
1070
     0
1070
     0
1070
     0
  0
ELLIPSE
  5
F4E
330
1F
100
AcDbEntity
  8
1
  6
Continuous
 62
   155
370
    35
100
AcDbEllipse
 10
839.4575110671016
 20
195.9011515896625
 30
0.0
 11
-0.1788881628778456
 21
-0.0894372695367508
 31
0.0
210
0.0
220
0.0
230
1.0
 40
0.9998096356151558
 41
1.107255326719543
 42
2.677899354469554
1001
ACAD_OBJECT_CHANGE_GUID
1070
     0
1071
        0
1070
     0
1070
     0
1070
     0
1070
     0
1070
     0
1070
     0
1070
     0
1070
     0
1070
     0
1070
     0
1070
     0
1071
        0
1070
     0
1070
     0
1070
     0
1070
     0
1070
     0
1070
     0
1070
     0
1070
     0
1070
     0
1070
     0
  0
ELLIPSE
  5
F4F
330
1F
100
AcDbEntity
  8
1
  6
Continuous
 62
   155
370
    35
100
AcDbEllipse
 10
820.9394370118141
 20
195.9011515896625
 30
0.0
 11
-0.1788881628778453
 21
0.0894372695367513
 31
0.0
210
0.0
220
0.0
230
1.0
 40
0.999809635615156
 41
0.4636932991202305
 42
2.034337326870238
1001
ACAD_OBJECT_CHANGE_GUID
1070
     0
1071
        0
1070
     0
1070
     0
1070
     0
1070
     0
1070
     0
1070
     0
1070
     0
1070
     0
1070
     0
1070
     0
1070
     0
1071
        0
1070
     0
1070
     0
1070
     0
1070
     0
1070
     0
1070
     0
1070
     0
1070
     0
1070
     0
1070
     0
  0
ELLIPSE
  5
F50
330
1F
100
AcDbEntity
  8
1
  6
Continuous
 62
   155
370
    35
100
AcDbEllipse
 10
825.4499987055412
 20
191.1630703032322
 30
0.0
 11
0.4569568011416566
 21
0.2029543837673493
 31
0.0
210
0.0
220
0.0
230
1.0
 40
0.9998176591973999
 41
1.152890990482754
 42
1.988701663106594
1001
ACAD_OBJECT_CHANGE_GUID
1070
     0
1071
        0
1070
     0
1070
     0
1070
     0
1070
     0
1070
     0
1070
     0
1070
     0
1070
     0
1070
     0
1070
     0
1070
     0
1071
        0
1070
     0
1070
     0
1070
     0
1070
     0
1070
     0
1070
     0
1070
     0
1070
     0
1070
     0
1070
     0
  0
ELLIPSE
  5
F51
330
1F
100
AcDbEntity
  8
1
  6
Continuous
 62
   155
370
    35
100
AcDbEllipse
 10
834.9469493733746
 20
195.2324336252139
 30
0.0
 11
-0.4569568011416571
 21
-0.2029543837673483
 31
0.0
210
0.0
220
0.0
230
1.0
 40
0.9998176591973999
 41
1.15289099048276
 42
1.988701663106586
1001
ACAD_OBJECT_CHANGE_GUID
1070
     0
1071
        0
1070
     0
1070
     0
1070
     0
1070
     0
1070
     0
1070
     0
1070
     0
1070
     0
1070
     0
1070
     0
1070
     0
1071
        0
1070
     0
1070
     0
1070
     0
1070
     0
1070
     0
1070
     0
1070
     0
1070
     0
1070
     0
1070
     0
  0
ELLIPSE
  5
F52
330
1F
100
AcDbEntity
  8
1
  6
Continuous
 62
   155
370
    35
100
AcDbEllipse
 10
834.9469493733746
 20
191.1630703032322
 30
0.0
 11
0.4569568011416563
 21
-0.2029543837673505
 31
0.0
210
0.0
220
0.0
230
1.0
 40
0.9998176591973999
 41
1.152890990483198
 42
1.988701663107041
1001
ACAD_OBJECT_CHANGE_GUID
1070
     0
1071
        0
1070
     0
1070
     0
1070
     0
1070
     0
1070
     0
1070
     0
1070
     0
1070
     0
1070
     0
1070
     0
1070
     0
1071
        0
1070
     0
1070
     0
1070
     0
1070
     0
1070
     0
1070
     0
1070
     0
1070
     0
1070
     0
1070
     0
  0
ELLIPSE
  5
F53
330
1F
100
AcDbEntity
  8
1
  6
Continuous
 62
   155
370
    35
100
AcDbEllipse
 10
825.4499987055414
 20
195.2324336252139
 30
0.0
 11
-0.4569568011416563
 21
0.2029543837673503
 31
0.0
210
0.0
220
0.0
230
1.0
 40
0.9998176591973999
 41
1.152890990483198
 42
1.988701663107041
1001
ACAD_OBJECT_CHANGE_GUID
1070
     0
1071
        0
1070
     0
1070
     0
1070
     0
1070
     0
1070
     0
1070
     0
1070
     0
1070
     0
1070
     0
1070
     0
1070
     0
1071
        0
1070
     0
1070
     0
1070
     0
1070
     0
1070
     0
1070
     0
1070
     0
1070
     0
1070
     0
1070
     0
  0
ELLIPSE
  5
F54
330
1F
100
AcDbEntity
  8
1
  6
Continuous
 62
   155
370
    35
100
AcDbEllipse
 10
820.9578243561137
 20
190.4575748492775
 30
0.0
 11
-0.1788881628778456
 21
-0.0894372695367508
 31
0.0
210
0.0
220
0.0
230
1.0
 40
0.9998096356151558
 41
4.248847980309331
 42
5.819492008059339
1001
ACAD_OBJECT_CHANGE_GUID
1070
     0
1071
        0
1070
     0
1070
     0
1070
     0
1070
     0
1070
     0
1070
     0
1070
     0
1070
     0
1070
     0
1070
     0
1070
     0
1071
        0
1070
     0
1070
     0
1070
     0
1070
     0
1070
     0
1070
     0
1070
     0
1070
     0
1070
     0
1070
     0
  0
ELLIPSE
  5
F55
330
1F
100
AcDbEntity
  8
1
  6
Continuous
 62
   155
370
    35
100
AcDbEllipse
 10
820.9578243561102
 20
195.9379290791689
 30
0.0
 11
0.1788881628778456
 21
-0.0894372695367507
 31
0.0
210
0.0
220
0.0
230
1.0
 40
0.9998096356151558
 41
3.605285952710051
 42
5.175929980460041
1001
ACAD_OBJECT_CHANGE_GUID
1070
     0
1071
        0
1070
     0
1070
     0
1070
     0
1070
     0
1070
     0
1070
     0
1070
     0
1070
     0
1070
     0
1070
     0
1070
     0
1071
        0
1070
     0
1070
     0
1070
     0
1070
     0
1070
     0
1070
     0
1070
     0
1070
     0
1070
     0
1070
     0
  0
ELLIPSE
  5
F56
330
1F
100
AcDbEntity
  8
1
  6
Continuous
 62
   155
370
    35
100
AcDbEllipse
 10
825.8578738580137
 20
175.4071517827788
 30
0.0
 11
1.0607194075388
 21
1.060719407538801
 31
0.0
210
0.0
220
0.0
230
1.0
 40
0.999944155109704
 41
2.356232566403316
 42
3.926952740776274
1001
ACAD_OBJECT_CHANGE_GUID
1070
     0
1071
        0
1070
     0
1070
     0
1070
     0
1070
     0
1070
     0
1070
     0
1070
     0
1070
     0
1070
     0
1070
     0
1070
     0
1071
        0
1070
     0
1070
     0
1070
     0
1070
     0
1070
     0
1070
     0
1070
     0
1070
     0
1070
     0
1070
     0
  0
ELLIPSE
  5
F57
330
1F
100
AcDbEntity
  8
1
  6
Continuous
 62
   155
370
    35
100
AcDbEllipse
 10
839.4391237228026
 20
190.4575748492808
 30
0.0
 11
-0.1788881628778453
 21
0.0894372695367513
 31
0.0
210
0.0
220
0.0
230
1.0
 40
0.9998096356151558
 41
3.605285952710038
 42
5.175929980460047
1001
ACAD_OBJECT_CHANGE_GUID
1070
     0
1071
        0
1070
     0
1070
     0
1070
     0
1070
     0
1070
     0
1070
     0
1070
     0
1070
     0
1070
     0
1070
     0
1070
     0
1071
        0
1070
     0
1070
     0
1070
     0
1070
     0
1070
     0
1070
     0
1070
     0
1070
     0
1070
     0
1070
     0
  0
ELLIPSE
  5
F58
330
1F
100
AcDbEntity
  8
1
  6
Continuous
 62
   155
370
    35
100
AcDbEllipse
 10
834.5390742209021
 20
175.4071517827787
 30
0.0
 11
-1.060719407538708
 21
1.060719407538708
 31
0.0
210
0.0
220
0.0
230
1.0
 40
0.9999441551097536
 41
2.356232566403276
 42
3.926952740776311
1001
ACAD_OBJECT_CHANGE_GUID
1070
     0
1071
        0
1070
     0
1070
     0
1070
     0
1070
     0
1070
     0
1070
     0
1070
     0
1070
     0
1070
     0
1070
     0
1070
     0
1071
        0
1070
     0
1070
     0
1070
     0
1070
     0
1070
     0
1070
     0
1070
     0
1070
     0
1070
     0
1070
     0
  0
ELLIPSE
  5
F59
330
1F
100
AcDbEntity
  8
1
  6
Continuous
 62
   155
370
    35
100
AcDbEllipse
 10
837.5391884560595
 20
177.6070375476215
 30
0.0
 11
-1.060762485853973
 21
1.060762485853973
 31
0.0
210
0.0
220
0.0
230
1.0
 40
0.9999035466699616
 41
5.497825219993089
 42
7.068545394366084
1001
ACAD_OBJECT_CHANGE_GUID
1070
     0
1071
        0
1070
     0
1070
     0
1070
     0
1070
     0
1070
     0
1070
     0
1070
     0
1070
     0
1070
     0
1070
     0
1070
     0
1071
        0
1070
     0
1070
     0
1070
     0
1070
     0
1070
     0
1070
     0
1070
     0
1070
     0
1070
     0
1070
     0
  0
ELLIPSE
  5
F5A
330
1F
100
AcDbEntity
  8
1
  6
Continuous
 62
   155
370
    35
100
AcDbEllipse
 10
839.4391237228054
 20
195.9379290791646
 30
0.0
 11
0.1788881628778453
 21
0.0894372695367514
 31
0.0
210
0.0
220
0.0
230
1.0
 40
0.9998096356151558
 41
4.248847980309327
 42
5.819492008059334
1001
ACAD_OBJECT_CHANGE_GUID
1070
     0
1071
        0
1070
     0
1070
     0
1070
     0
1070
     0
1070
     0
1070
     0
1070
     0
1070
     0
1070
     0
1070
     0
1070
     0
1071
        0
1070
     0
1070
     0
1070
     0
1070
     0
1070
     0
1070
     0
1070
     0
1070
     0
1070
     0
1070
     0
  0
ELLIPSE
  5
F5B
330
1F
100
AcDbEntity
  8
1
  6
Continuous
 62
   155
370
    35
100
AcDbEllipse
 10
822.8577596228564
 20
177.6070375476215
 30
0.0
 11
1.060762485853938
 21
1.060762485853938
 31
0.0
210
0.0
220
0.0
230
1.0
 40
0.999903546669983
 41
5.497825219993075
 42
7.068545394366097
1001
ACAD_OBJECT_CHANGE_GUID
1070
     0
1071
        0
1070
     0
1070
     0
1070
     0
1070
     0
1070
     0
1070
     0
1070
     0
1070
     0
1070
     0
1070
     0
1070
     0
1071
        0
1070
     0
1070
     0
1070
     0
1070
     0
1070
     0
1070
     0
1070
     0
1070
     0
1070
     0
1070
     0
  0
ELLIPSE
  5
F5C
330
1F
100
AcDbEntity
  8
1
  6
Continuous
 62
   155
370
    35
100
AcDbEllipse
 10
822.8577596228564
 20
177.6070375476215
 30
0.0000000000000165
 11
-1.202173072922511
 21
-1.202173072922511
 31
-0.0000000000000001
210
0.0
220
-0.0000000000000001
230
1.0
 40
0.9999238504775703
 41
2.356232566403284
 42
3.926952740776301
1001
ACAD_OBJECT_CHANGE_GUID
1070
     0
1071
        0
1070
     0
1070
     0
1070
     0
1070
     0
1070
     0
1070
     0
1070
     0
1070
     0
1070
     0
1070
     0
1070
     0
1071
        0
1070
     0
1070
     0
1070
     0
1070
     0
1070
     0
1070
     0
1070
     0
1070
     0
1070
     0
1070
     0
  0
ELLIPSE
  5
F5D
330
1F
100
AcDbEntity
  8
1
  6
Continuous
 62
   155
370
    35
100
AcDbEllipse
 10
825.8578738580137
 20
175.4071517827787
 30
0.0
 11
-0.9193088204701556
 21
-0.9193088204701565
 31
-0.0000000000000001
210
0.0
220
-0.0000000000000001
230
1.0
 40
0.9999238504775703
 41
5.497825219993078
 42
7.068545394366093
1001
ACAD_OBJECT_CHANGE_GUID
1070
     0
1071
        0
1070
     0
1070
     0
1070
     0
1070
     0
1070
     0
1070
     0
1070
     0
1070
     0
1070
     0
1070
     0
1070
     0
1071
        0
1070
     0
1070
     0
1070
     0
1070
     0
1070
     0
1070
     0
1070
     0
1070
     0
1070
     0
1070
     0
  0
ELLIPSE
  5
F5E
330
1F
100
AcDbEntity
  8
1
  6
Continuous
 62
   155
370
    35
100
AcDbEllipse
 10
834.5390742209021
 20
175.4071517827787
 30
0.0
 11
0.919308820470156
 21
-0.9193088204701556
 31
-0.0000000000000001
210
0.0
220
-0.0000000000000001
230
1.0
 40
0.9999238504775703
 41
5.497825219993077
 42
7.068545394366094
1001
ACAD_OBJECT_CHANGE_GUID
1070
     0
1071
        0
1070
     0
1070
     0
1070
     0
1070
     0
1070
     0
1070
     0
1070
     0
1070
     0
1070
     0
1070
     0
1070
     0
1071
        0
1070
     0
1070
     0
1070
     0
1070
     0
1070
     0
1070
     0
1070
     0
1070
     0
1070
     0
1070
     0
  0
ELLIPSE
  5
F5F
330
1F
100
AcDbEntity
  8
1
  6
Continuous
 62
   155
370
    35
100
AcDbEllipse
 10
837.5391884560595
 20
177.6070375476215
 30
0.0000000000000167
 11
1.20217307292251
 21
-1.20217307292251
 31
-0.0000000000000001
210
0.0
220
-0.0000000000000001
230
1.0
 40
0.9999238504775703
 41
2.356232566403284
 42
3.926952740776301
1001
ACAD_OBJECT_CHANGE_GUID
1070
     0
1071
        0
1070
     0
1070
     0
1070
     0
1070
     0
1070
     0
1070
     0
1070
     0
1070
     0
1070
     0
1070
     0
1070
     0
1071
        0
1070
     0
1070
     0
1070
     0
1070
     0
1070
     0
1070
     0
1070
     0
1070
     0
1070
     0
1070
     0
  0
SPLINE
  5
F60
330
1F
100
AcDbEntity
  8
2
  6
Continuous
 62
   155
370
    70
100
AcDbSpline
210
0.0
220
0.0
230
1.0
 70
    24
 71
     1
 72
     4
 73
     2
 74
     0
 42
0.000000001
 43
0.0000000001
 40
0.0
 40
0.0
 40
1.0
 40
1.0
 10
834.9484740394579
 20
167.851673964223
 30
0.0
 10
834.9484740394579
 20
173.8947519642231
 30
0.0
1001
ACAD_OBJECT_CHANGE_GUID
1070
     0
1071
        0
1070
     0
1070
     0
1070
     0
1070
     0
1070
     0
1070
     0
1070
     0
1070
     0
1070
     0
1070
     0
1070
     0
1071
        0
1070
     0
1070
     0
1070
     0
1070
     0
1070
     0
1070
     0
1070
     0
1070
     0
1070
     0
1070
     0
  0
SPLINE
  5
F61
330
1F
100
AcDbEntity
  8
2
  6
Continuous
 62
   155
370
    70
100
AcDbSpline
210
0.0
220
0.0
230
1.0
 70
    24
 71
     1
 72
     4
 73
     2
 74
     0
 42
0.000000001
 43
0.0000000001
 40
0.0
 40
0.0
 40
1.0
 40
1.0
 10
825.448474039458
 20
173.924845964223
 30
0.0
 10
825.448474039458
 20
167.851673964223
 30
0.0
1001
ACAD_OBJECT_CHANGE_GUID
1070
     0
1071
        0
1070
     0
1070
     0
1070
     0
1070
     0
1070
     0
1070
     0
1070
     0
1070
     0
1070
     0
1070
     0
1070
     0
1071
        0
1070
     0
1070
     0
1070
     0
1070
     0
1070
     0
1070
     0
1070
     0
1070
     0
1070
     0
1070
     0
  0
SPLINE
  5
F62
330
1F
100
AcDbEntity
  8
1
  6
Continuous
 62
   155
370
    70
100
AcDbSpline
210
0.0
220
0.0
230
1.0
 70
     8
 71
     3
 72
    31
 73
    27
 74
     0
 42
0.000000001
 43
0.0000000001
 40
0.0
 40
0.0
 40
0.0
 40
0.0
 40
0.0156249999999995
 40
0.0156249999999995
 40
0.031249999999999
 40
0.0624999999999985
 40
0.0624999999999985
 40
0.124999999999999
 40
0.124999999999999
 40
0.2499999999999998
 40
0.2499999999999998
 40
0.3124999999999998
 40
0.3124999999999998
 40
0.3749999999999999
 40
0.3749999999999999
 40
0.5
 40
0.5
 40
0.6249999999999996
 40
0.6249999999999996
 40
0.6874999999999997
 40
0.6874999999999997
 40
0.75
 40
0.75
 40
0.8749999999999998
 40
0.8749999999999998
 40
1.0
 40
1.0
 40
1.0
 40
1.0
 10
824.64956939205
 20
193.742652617554
 30
0.0
 10
824.6516114257971
 20
193.7372145883239
 30
0.0
 10
824.6536521530289
 20
193.7316841060532
 30
0.0
 10
824.6576346171615
 20
193.720696258662
 30
0.0
 10
824.6635082969742
 20
193.7041950556633
 30
0.0
 10
824.6690843947014
 20
193.6876347126812
 30
0.0
 10
824.6798452477261
 20
193.6544330392199
 30
0.0
 10
824.6864976860754
 20
193.6321906091269
 30
0.0
 10
824.7049210453271
 20
193.5651228898383
 30
0.0
 10
824.71516238773
 20
193.5199576495805
 30
0.0
 10
824.7274975087782
 20
193.4514595502525
 30
0.0
 10
824.7311036045539
 20
193.4285017050928
 30
0.0
 10
824.7372969450644
 20
193.3823228412772
 30
0.0
 10
824.7398817554371
 20
193.3590967001265
 30
0.0
 10
824.7460463771453
 20
193.2896113849965
 30
0.0
 10
824.748069552317
 20
193.2433496390076
 30
0.0
 10
824.7480340902148
 20
193.1509530770794
 30
0.0
 10
824.74597547726
 20
193.104818248722
 30
0.0
 10
824.7398071107827
 20
193.0357071578444
 30
0.0
 10
824.7372366695191
 20
193.012685252618
 30
0.0
 10
824.7310527617054
 20
192.9666703778289
 30
0.0
 10
824.7274309900895
 20
192.9436336051684
 30
0.0
 10
824.7150323583241
 20
192.874908322609
 30
0.0
 10
824.7047533986386
 20
192.8297000382978
 30
0.0
 10
824.6801916601922
 20
192.7404287646938
 30
0.0
 10
824.6659096635735
 20
192.6963662010328
 30
0.0
 10
824.64956939205
 20
192.652851310892
 30
0.0
1001
ACAD_OBJECT_CHANGE_GUID
1070
     0
1071
        0
1070
     0
1070
     0
1070
     0
1070
     0
1070
     0
1070
     0
1070
     0
1070
     0
1070
     0
1070
     0
1070
     0
1071
        0
1070
     0
1070
     0
1070
     0
1070
     0
1070
     0
1070
     0
1070
     0
1070
     0
1070
     0
1070
     0
  0
SPLINE
  5
F63
330
1F
100
AcDbEntity
  8
1
  6
Continuous
 62
   155
370
    70
100
AcDbSpline
210
0.0
220
0.0
230
1.0
 70
     8
 71
     3
 72
    19
 73
    15
 74
     0
 42
0.000000001
 43
0.0000000001
 40
0.0
 40
0.0
 40
0.0
 40
0.0
 40
0.125000000000001
 40
0.125000000000001
 40
0.250000000000002
 40
0.3750000000000031
 40
0.3750000000000031
 40
0.4375000000000035
 40
0.4375000000000035
 40
0.5000000000000039
 40
0.5000000000000039
 40
0.7500000000000023
 40
0.7500000000000023
 40
1.0
 40
1.0
 40
1.0
 40
1.0
 10
835.698474039458
 20
193.5883853528567
 30
0.0
 10
835.6901097295777
 20
193.5562670926528
 30
0.0
 10
835.6828288782569
 20
193.5240569703342
 30
0.0
 10
835.6703401746713
 20
193.4592623729288
 30
0.0
 10
835.6599407692009
 20
193.3941550929949
 30
0.0
 10
835.6536940985082
 20
193.3284082239007
 30
0.0
 10
835.6505798288036
 20
193.278851793265
 30
0.0
 10
835.6498041240874
 20
193.2622794272573
 30
0.0
 10
835.6487848006912
 20
193.2292411966131
 30
0.0
 10
835.6485393612814
 20
193.2127533174196
 30
0.0
 10
835.6486162957613
 20
193.1304682714902
 30
0.0
 10
835.6528328280115
 20
193.0651333794016
 30
0.0
 10
835.6694401239783
 20
192.9354153648268
 30
0.0
 10
835.6818295317211
 20
192.8710321127614
 30
0.0
 10
835.698474039458
 20
192.8071185755895
 30
0.0
1001
ACAD_OBJECT_CHANGE_GUID
1070
     0
1071
        0
1070
     0
1070
     0
1070
     0
1070
     0
1070
     0
1070
     0
1070
     0
1070
     0
1070
     0
1070
     0
1070
     0
1071
        0
1070
     0
1070
     0
1070
     0
1070
     0
1070
     0
1070
     0
1070
     0
1070
     0
1070
     0
1070
     0
  0
SPLINE
  5
F64
330
1F
100
AcDbEntity
  8
1
  6
Continuous
 62
   155
370
    35
100
AcDbSpline
210
0.0
220
0.0
230
1.0
 70
     8
 71
     3
 72
    36
 73
    32
 74
     0
 42
0.000000001
 43
0.0000000001
 40
0.0
 40
0.0
 40
0.0
 40
0.0
 40
0.0624999999999981
 40
0.0624999999999981
 40
0.0937499999999972
 40
0.0937499999999972
 40
0.1249999999999962
 40
0.1249999999999962
 40
0.1562499999999952
 40
0.1562499999999952
 40
0.1874999999999943
 40
0.1874999999999943
 40
0.2499999999999945
 40
0.2499999999999945
 40
0.3124999999999947
 40
0.3124999999999947
 40
0.3749999999999949
 40
0.3749999999999949
 40
0.4999999999999977
 40
0.4999999999999977
 40
0.5624999999999984
 40
0.5624999999999984
 40
0.6249999999999992
 40
0.6249999999999992
 40
0.75
 40
0.75
 40
0.8125000000000003
 40
0.8125000000000003
 40
0.8750000000000007
 40
0.8750000000000007
 40
1.0
 40
1.0
 40
1.0
 40
1.0
 10
834.9469493733735
 20
194.7325097776357
 30
0.0
 10
834.9472736139539
 20
194.7321447598034
 30
0.0
 10
834.9452241317539
 20
194.7304826199166
 30
0.0
 10
834.9390062671844
 20
194.7262320205469
 30
0.0
 10
834.9363985955321
 20
194.7245144920985
 30
0.0
 10
834.930236552447
 20
194.7205376847487
 30
0.0
 10
834.9267088040393
 20
194.7182951430393
 30
0.0
 10
834.9188734664865
 20
194.7133482158232
 30
0.0
 10
834.9145467729838
 20
194.7106318529824
 30
0.0
 10
834.9053136663076
 20
194.7048386618945
 30
0.0
 10
834.9004112845177
 20
194.7017642499293
 30
0.0
 10
834.884988055591
 20
194.6920633888429
 30
0.0
 10
834.8737580280619
 20
194.6849628838361
 30
0.0
 10
834.8499106285116
 20
194.6696666966707
 30
0.0
 10
834.8372659804956
 20
194.6614536346469
 30
0.0
 10
834.8110026647404
 20
194.6440673302905
 30
0.0
 10
834.7975188546806
 20
194.6349839047499
 30
0.0
 10
834.7563268369713
 20
194.6066240198058
 30
0.0
 10
834.7278935830736
 20
194.5862499349395
 30
0.0
 10
834.6845014817853
 20
194.5534154006882
 30
0.0
 10
834.669883176363
 20
194.5420678895553
 30
0.0
 10
834.6405772300443
 20
194.5186490522067
 30
0.0
 10
834.6259493209297
 20
194.5066265800642
 30
0.0
 10
834.582228543762
 20
194.4695614346191
 30
0.0
 10
834.5532998263573
 20
194.4435303967057
 30
0.0
 10
834.5105299933148
 20
194.4021203561169
 30
0.0
 10
834.4963552141205
 20
194.3878983860253
 30
0.0
 10
834.4683533589625
 20
194.3586633563283
 30
0.0
 10
834.4546075614877
 20
194.3437364530555
 30
0.0
 10
834.4142103275821
 20
194.2979471071133
 30
0.0
 10
834.3883945426341
 20
194.2660852381201
 30
0.0
 10
834.3639346799067
 20
194.2325859300575
 30
0.0
1001
ACAD_OBJECT_CHANGE_GUID
1070
     0
1071
        0
1070
     0
1070
     0
1070
     0
1070
     0
1070
     0
1070
     0
1070
     0
1070
     0
1070
     0
1070
     0
1070
     0
1071
        0
1070
     0
1070
     0
1070
     0
1070
     0
1070
     0
1070
     0
1070
     0
1070
     0
1070
     0
1070
     0
  0
SPLINE
  5
F65
330
1F
100
AcDbEntity
  8
1
  6
Continuous
 62
   155
370
    35
100
AcDbSpline
210
0.0
220
0.0
230
1.0
 70
     8
 71
     3
 72
    36
 73
    32
 74
     0
 42
0.000000001
 43
0.0000000001
 40
0.0
 40
0.0
 40
0.0
 40
0.0
 40
0.1249999999999923
 40
0.1249999999999923
 40
0.1874999999999897
 40
0.1874999999999897
 40
0.249999999999987
 40
0.249999999999987
 40
0.3749999999999838
 40
0.3749999999999838
 40
0.4374999999999826
 40
0.4374999999999826
 40
0.4999999999999816
 40
0.4999999999999816
 40
0.6249999999999824
 40
0.6249999999999824
 40
0.6874999999999835
 40
0.6874999999999835
 40
0.7499999999999849
 40
0.7499999999999849
 40
0.8124999999999859
 40
0.8124999999999859
 40
0.8437499999999882
 40
0.8437499999999882
 40
0.8749999999999904
 40
0.8749999999999904
 40
0.9062499999999927
 40
0.9062499999999927
 40
0.9374999999999952
 40
0.9374999999999952
 40
1.0
 40
1.0
 40
1.0
 40
1.0
 10
826.0330133990091
 20
192.1629179983887
 30
0.0
 10
826.0085535362815
 20
192.129418690326
 30
0.0
 10
825.9827377513339
 20
192.0975568213328
 30
0.0
 10
825.9423405174281
 20
192.0517674753906
 30
0.0
 10
825.9285947199533
 20
192.0368405721178
 30
0.0
 10
825.9005928647953
 20
192.0076055424208
 30
0.0
 10
825.886418085601
 20
191.9933835723291
 30
0.0
 10
825.8436482525583
 20
191.9519735317404
 30
0.0
 10
825.8147195351538
 20
191.9259424938269
 30
0.0
 10
825.7709987579861
 20
191.8888773483818
 30
0.0
 10
825.7563708488714
 20
191.8768548762394
 30
0.0
 10
825.7270649025528
 20
191.8534360388908
 30
0.0
 10
825.7124465971305
 20
191.842088527758
 30
0.0
 10
825.6690544958422
 20
191.8092539935065
 30
0.0
 10
825.6406212419447
 20
191.7888799086402
 30
0.0
 10
825.5994292242352
 20
191.7605200236962
 30
0.0
 10
825.5859454141754
 20
191.7514365981555
 30
0.0
 10
825.5596820984202
 20
191.7340502937993
 30
0.0
 10
825.5470374504042
 20
191.7258372317752
 30
0.0
 10
825.5231900508539
 20
191.7105410446101
 30
0.0
 10
825.5119600233246
 20
191.703440539603
 30
0.0
 10
825.4965367943981
 20
191.6937396785167
 30
0.0
 10
825.4916344126083
 20
191.6906652665517
 30
0.0
 10
825.482401305932
 20
191.6848720754636
 30
0.0
 10
825.4780746124293
 20
191.6821557126229
 30
0.0
 10
825.4702392748763
 20
191.6772087854067
 30
0.0
 10
825.4667115264687
 20
191.6749662436974
 30
0.0
 10
825.4605494833837
 20
191.6709894363476
 30
0.0
 10
825.4579418117314
 20
191.669271907899
 30
0.0
 10
825.4517239471619
 20
191.6650213085294
 30
0.0
 10
825.4496744649619
 20
191.6633591686426
 30
0.0
 10
825.4499987055423
 20
191.6629941508103
 30
0.0
1001
ACAD_OBJECT_CHANGE_GUID
1070
     0
1071
        0
1070
     0
1070
     0
1070
     0
1070
     0
1070
     0
1070
     0
1070
     0
1070
     0
1070
     0
1070
     0
1070
     0
1071
        0
1070
     0
1070
     0
1070
     0
1070
     0
1070
     0
1070
     0
1070
     0
1070
     0
1070
     0
1070
     0
  0
SPLINE
  5
F66
330
1F
100
AcDbEntity
  8
1
  6
Continuous
 62
   155
370
    35
100
AcDbSpline
210
0.0
220
0.0
230
1.0
 70
     8
 71
     3
 72
    34
 73
    30
 74
     0
 42
0.000000001
 43
0.0000000001
 40
0.0
 40
0.0
 40
0.0
 40
0.0
 40
0.062499999999998
 40
0.062499999999998
 40
0.0937499999999985
 40
0.0937499999999985
 40
0.1249999999999989
 40
0.1249999999999989
 40
0.1874999999999987
 40
0.1874999999999987
 40
0.2499999999999986
 40
0.2499999999999986
 40
0.3124999999999983
 40
0.3124999999999983
 40
0.3749999999999981
 40
0.3749999999999981
 40
0.4999999999999973
 40
0.4999999999999973
 40
0.5624999999999978
 40
0.5624999999999978
 40
0.6249999999999984
 40
0.6249999999999984
 40
0.7499999999999976
 40
0.7499999999999976
 40
0.8124999999999982
 40
0.8124999999999982
 40
0.8749999999999985
 40
0.8749999999999985
 40
1.0
 40
1.0
 40
1.0
 40
1.0
 10
825.4499987055412
 20
194.7325097776356
 30
0.0
 10
825.4496723645909
 20
194.7321423952859
 30
0.0
 10
825.4517503094277
 20
194.7304621629978
 30
0.0
 10
825.4580172387655
 20
194.7261817015863
 30
0.0
 10
825.4606324618944
 20
194.7244601248247
 30
0.0
 10
825.4668524521191
 20
194.7204475806097
 30
0.0
 10
825.4704088049519
 20
194.718187720488
 30
0.0
 10
825.4821154241936
 20
194.7107978037489
 30
0.0
 10
825.4913292260654
 20
194.7050394446339
 30
0.0
 10
825.5118127528994
 20
194.692156263658
 30
0.0
 10
825.523088588741
 20
194.685028233065
 30
0.0
 10
825.5472329205463
 20
194.6695410478015
 30
0.0
 10
825.5599090683725
 20
194.6613043404252
 30
0.0
 10
825.5859630304973
 20
194.6440546994458
 30
0.0
 10
825.5993712166512
 20
194.6350228334391
 30
0.0
 10
825.6404247239382
 20
194.60676132383
 30
0.0
 10
825.6688829689526
 20
194.5863788380675
 30
0.0
 10
825.7124818250947
 20
194.5533891882359
 30
0.0
 10
825.727137729509
 20
194.5420101912323
 30
0.0
 10
825.7563640532453
 20
194.5186539827388
 30
0.0
 10
825.7709718104033
 20
194.5066489446664
 30
0.0
 10
825.814690297085
 20
194.4695871818759
 30
0.0
 10
825.8436947419424
 20
194.443494736914
 30
0.0
 10
825.8866957676612
 20
194.4018467774549
 30
0.0
 10
825.9008973117637
 20
194.38758678981
 30
0.0
 10
825.9287522920882
 20
194.3584924819147
 30
0.0
 10
825.9424408901177
 20
194.3436245878853
 30
0.0
 10
825.9827143140681
 20
194.2979698501257
 30
0.0
 10
826.008511402737
 20
194.2661429426381
 30
0.0
 10
826.0330133990091
 20
194.2325859300574
 30
0.0
1001
ACAD_OBJECT_CHANGE_GUID
1070
     0
1071
        0
1070
     0
1070
     0
1070
     0
1070
     0
1070
     0
1070
     0
1070
     0
1070
     0
1070
     0
1070
     0
1070
     0
1071
        0
1070
     0
1070
     0
1070
     0
1070
     0
1070
     0
1070
     0
1070
     0
1070
     0
1070
     0
1070
     0
  0
SPLINE
  5
F67
330
1F
100
AcDbEntity
  8
1
  6
Continuous
 62
   155
370
    35
100
AcDbSpline
210
0.0
220
0.0
230
1.0
 70
     8
 71
     3
 72
    34
 73
    30
 74
     0
 42
0.000000001
 43
0.0000000001
 40
0.0
 40
0.0
 40
0.0
 40
0.0
 40
0.1250000000000031
 40
0.1250000000000031
 40
0.1875000000000047
 40
0.1875000000000047
 40
0.2500000000000063
 40
0.2500000000000063
 40
0.3750000000000074
 40
0.3750000000000074
 40
0.4375000000000064
 40
0.4375000000000064
 40
0.5000000000000055
 40
0.5000000000000055
 40
0.6250000000000026
 40
0.6250000000000026
 40
0.6875000000000009
 40
0.6875000000000009
 40
0.7499999999999993
 40
0.7499999999999993
 40
0.8124999999999978
 40
0.8124999999999978
 40
0.874999999999996
 40
0.874999999999996
 40
0.9062499999999964
 40
0.9062499999999964
 40
0.9374999999999968
 40
0.9374999999999968
 40
1.0
 40
1.0
 40
1.0
 40
1.0
 10
834.3639346799067
 20
192.1629179983885
 30
0.0
 10
834.3884366761788
 20
192.1293609858079
 30
0.0
 10
834.4142337648476
 20
192.0975340783202
 30
0.0
 10
834.4545071887983
 20
192.0518793405607
 30
0.0
 10
834.4681957868278
 20
192.0370114465313
 30
0.0
 10
834.4960507671521
 20
192.007917138636
 30
0.0
 10
834.5102523112545
 20
191.993657150991
 30
0.0
 10
834.5532533369732
 20
191.9520091915319
 30
0.0
 10
834.5822577818307
 20
191.92591674657
 30
0.0
 10
834.6259762685125
 20
191.8888549837797
 30
0.0
 10
834.6405840256704
 20
191.8768499457071
 30
0.0
 10
834.6698103494066
 20
191.8534937372137
 30
0.0
 10
834.6844662538211
 20
191.84211474021
 30
0.0
 10
834.7280651099632
 20
191.8091250903785
 30
0.0
 10
834.7565233549774
 20
191.788742604616
 30
0.0
 10
834.7975768622644
 20
191.7604810950068
 30
0.0
 10
834.8109850484187
 20
191.7514492290002
 30
0.0
 10
834.8370390105433
 20
191.7341995880208
 30
0.0
 10
834.8497151583694
 20
191.7259628806445
 30
0.0
 10
834.873859490175
 20
191.7104756953811
 30
0.0
 10
834.8851353260164
 20
191.703347664788
 30
0.0
 10
834.9056188528503
 20
191.6904644838121
 30
0.0
 10
834.9148326547222
 20
191.684706124697
 30
0.0
 10
834.9265392739637
 20
191.677316207958
 30
0.0
 10
834.9300956267965
 20
191.6750563478363
 30
0.0
 10
834.9363156170213
 20
191.6710438036213
 30
0.0
 10
834.9389308401503
 20
191.6693222268596
 30
0.0
 10
834.9451977694879
 20
191.6650417654481
 30
0.0
 10
834.9472757143251
 20
191.6633615331602
 30
0.0
 10
834.9469493733746
 20
191.6629941508103
 30
0.0
1001
ACAD_OBJECT_CHANGE_GUID
1070
     0
1071
        0
1070
     0
1070
     0
1070
     0
1070
     0
1070
     0
1070
     0
1070
     0
1070
     0
1070
     0
1070
     0
1070
     0
1071
        0
1070
     0
1070
     0
1070
     0
1070
     0
1070
     0
1070
     0
1070
     0
1070
     0
1070
     0
1070
     0
  0
SPLINE
  5
F68
330
1F
100
AcDbEntity
  8
1
  6
Continuous
 62
   155
370
    35
100
AcDbSpline
210
0.0
220
0.0
230
1.0
 70
     8
 71
     3
 72
    32
 73
    28
 74
     0
 42
0.000000001
 43
0.0000000001
 40
0.0
 40
0.0
 40
0.0
 40
0.0
 40
0.1249999999999989
 40
0.1249999999999989
 40
0.1874999999999987
 40
0.1874999999999987
 40
0.2187499999999988
 40
0.2187499999999988
 40
0.2499999999999989
 40
0.2499999999999989
 40
0.3750000000000023
 40
0.3750000000000023
 40
0.4375000000000038
 40
0.4375000000000038
 40
0.5000000000000054
 40
0.5000000000000054
 40
0.6250000000000077
 40
0.6250000000000077
 40
0.6875000000000086
 40
0.6875000000000086
 40
0.7187500000000082
 40
0.7187500000000082
 40
0.7500000000000079
 40
0.7500000000000079
 40
0.8750000000000039
 40
0.8750000000000039
 40
1.0
 40
1.0
 40
1.0
 40
1.0
 10
825.5634063874417
 20
194.0611417465338
 30
0.0
 10
825.5414227394282
 20
194.1213577015737
 30
0.0
 10
825.5178496994538
 20
194.1792101319443
 30
0.0
 10
825.4804020765368
 20
194.2629479230282
 30
0.0
 10
825.4675714774522
 20
194.2903494166482
 30
0.0
 10
825.4478431301036
 20
194.330716706687
 30
0.0
 10
825.4411772049374
 20
194.3440682769233
 30
0.0
 10
825.4277321991672
 20
194.3704501736102
 30
0.0
 10
825.4209986889115
 20
194.3833920570745
 30
0.0
 10
825.3872992310855
 20
194.4469268273507
 30
0.0
 10
825.360227951088
 20
194.4940363923667
 30
0.0
 10
825.320000709374
 20
194.559919263969
 30
0.0
 10
825.3066566969671
 20
194.5810753652387
 30
0.0
 10
825.2802207147166
 20
194.6218276885836
 30
0.0
 10
825.2673133007945
 20
194.6411400759558
 30
0.0
 10
825.2297663776879
 20
194.6959915999329
 30
0.0
 10
825.2062417038848
 20
194.7285421355003
 30
0.0
 10
825.1740867952545
 20
194.7716928861143
 30
0.0
 10
825.1638946016338
 20
194.7851224586566
 30
0.0
 10
825.1495519403924
 20
194.8038041317749
 30
0.0
 10
825.1449387324996
 20
194.8097743161104
 30
0.0
 10
825.1361416930853
 20
194.8211091052672
 30
0.0
 10
825.1319467821508
 20
194.8264881628329
 30
0.0
 10
825.1120351910866
 20
194.8519553515905
 30
0.0
 10
825.0994866171341
 20
194.8678055708565
 30
0.0
 10
825.0826218241218
 20
194.8900687250786
 30
0.0
 10
825.0785393989573
 20
194.8961914781843
 30
0.0
 10
825.0790896614544
 20
194.8972466111575
 30
0.0
1001
ACAD_OBJECT_CHANGE_GUID
1070
     0
1071
        0
1070
     0
1070
     0
1070
     0
1070
     0
1070
     0
1070
     0
1070
     0
1070
     0
1070
     0
1070
     0
1070
     0
1071
        0
1070
     0
1070
     0
1070
     0
1070
     0
1070
     0
1070
     0
1070
     0
1070
     0
1070
     0
1070
     0
  0
SPLINE
  5
F69
330
1F
100
AcDbEntity
  8
1
  6
Continuous
 62
   155
370
    35
100
AcDbSpline
210
0.0
220
0.0
230
1.0
 70
     8
 71
     3
 72
    32
 73
    28
 74
     0
 42
0.000000001
 43
0.0000000001
 40
0.0
 40
0.0
 40
0.0
 40
0.0
 40
0.1249999999999999
 40
0.1249999999999999
 40
0.1875000000000008
 40
0.1875000000000008
 40
0.2500000000000017
 40
0.3125000000000024
 40
0.3437500000000035
 40
0.3437500000000035
 40
0.3750000000000048
 40
0.3750000000000048
 40
0.5000000000000055
 40
0.5000000000000055
 40
0.5625000000000058
 40
0.5625000000000058
 40
0.6250000000000063
 40
0.6250000000000063
 40
0.7500000000000071
 40
0.7500000000000071
 40
0.8125000000000069
 40
0.8125000000000069
 40
0.8437500000000065
 40
0.8437500000000065
 40
0.875000000000006
 40
0.875000000000006
 40
1.0
 40
1.0
 40
1.0
 40
1.0
 10
825.0790896614544
 20
191.4982573172885
 30
0.0
 10
825.078539820037
 20
191.4993116428383
 30
0.0
 10
825.0826110479829
 20
191.5054123321885
 30
0.0
 10
825.0950406330161
 20
191.5218334312861
 30
0.0
 10
825.1002455048109
 20
191.5285354888185
 30
0.0
 10
825.1126599743853
 20
191.5444029995688
 30
0.0
 10
825.1269148383174
 20
191.5625267209702
 30
0.0
 10
825.1488006546516
 20
191.5906489319453
 30
0.0
 10
825.1635682729602
 20
191.6099894909645
 30
0.0
 10
825.1737595170389
 20
191.6234407518607
 30
0.0
 10
825.1790402236711
 20
191.6304612638765
 30
0.0
 10
825.2060619416505
 20
191.6667094429857
 30
0.0
 10
825.2296783299728
 20
191.6993909763516
 30
0.0
 10
825.2671333082311
 20
191.7540973001514
 30
0.0
 10
825.2799617407761
 20
191.7732877336738
 30
0.0
 10
825.306194417457
 20
191.8137055135702
 30
0.0
 10
825.3196647684573
 20
191.8350442039706
 30
0.0
 10
825.3600710001908
 20
191.9011913182045
 30
0.0
 10
825.3871168682456
 20
191.9482690394499
 30
0.0
 10
825.4272808286195
 20
192.0239382971858
 30
0.0
 10
825.4406034600009
 20
192.050009345797
 30
0.0
 10
825.4604327194661
 20
192.0905308617447
 30
0.0
 10
825.4670215144415
 20
192.1042869157647
 30
0.0
 10
825.4799741733654
 20
192.131942835374
 30
0.0
 10
825.486358689038
 20
192.1458841152214
 30
0.0
 10
825.5178078520703
 20
192.2161676136625
 30
0.0
 10
825.5414517349977
 20
192.2742256493552
 30
0.0
 10
825.5634063874417
 20
192.3343621819122
 30
0.0
1001
ACAD_OBJECT_CHANGE_GUID
1070
     0
1071
        0
1070
     0
1070
     0
1070
     0
1070
     0
1070
     0
1070
     0
1070
     0
1070
     0
1070
     0
1070
     0
1070
     0
1071
        0
1070
     0
1070
     0
1070
     0
1070
     0
1070
     0
1070
     0
1070
     0
1070
     0
1070
     0
1070
     0
  0
SPLINE
  5
F6A
330
1F
100
AcDbEntity
  8
1
  6
Continuous
 62
   155
370
    35
100
AcDbSpline
210
0.0
220
0.0
230
1.0
 70
     8
 71
     3
 72
    32
 73
    28
 74
     0
 42
0.000000001
 43
0.0000000001
 40
0.0
 40
0.0
 40
0.0
 40
0.0
 40
0.1250000000000067
 40
0.1250000000000067
 40
0.1875000000000091
 40
0.1875000000000091
 40
0.2500000000000115
 40
0.3125000000000138
 40
0.3437500000000141
 40
0.3437500000000141
 40
0.3750000000000143
 40
0.3750000000000143
 40
0.500000000000012
 40
0.500000000000012
 40
0.5625000000000103
 40
0.5625000000000103
 40
0.6250000000000086
 40
0.6250000000000086
 40
0.7500000000000066
 40
0.7500000000000066
 40
0.8125000000000051
 40
0.8125000000000051
 40
0.8437500000000039
 40
0.8437500000000039
 40
0.8750000000000024
 40
0.8750000000000024
 40
1.0
 40
1.0
 40
1.0
 40
1.0
 10
835.3178584174612
 20
194.8972466111575
 30
0.0
 10
835.3184082588789
 20
194.8961922856077
 30
0.0
 10
835.314337030933
 20
194.8900915962576
 30
0.0
 10
835.3019074458995
 20
194.8736704971599
 30
0.0
 10
835.2967025741049
 20
194.8669684396277
 30
0.0
 10
835.2842881045303
 20
194.8511009288772
 30
0.0
 10
835.2700332405984
 20
194.8329772074759
 30
0.0
 10
835.2481474242642
 20
194.8048549965008
 30
0.0
 10
835.2333798059554
 20
194.7855144374815
 30
0.0
 10
835.2231885618769
 20
194.7720631765853
 30
0.0
 10
835.2179078552447
 20
194.7650426645695
 30
0.0
 10
835.1908861372653
 20
194.7287944854603
 30
0.0
 10
835.167269748943
 20
194.6961129520945
 30
0.0
 10
835.1298147706847
 20
194.6414066282946
 30
0.0
 10
835.1169863381397
 20
194.6222161947721
 30
0.0
 10
835.0907536614588
 20
194.5817984148757
 30
0.0
 10
835.0772833104585
 20
194.5604597244754
 30
0.0
 10
835.036877078725
 20
194.4943126102415
 30
0.0
 10
835.0098312106704
 20
194.4472348889961
 30
0.0
 10
834.9696672502961
 20
194.3715656312602
 30
0.0
 10
834.9563446189147
 20
194.345494582649
 30
0.0
 10
834.9365153594499
 20
194.3049730667015
 30
0.0
 10
834.9299265644745
 20
194.2912170126813
 30
0.0
 10
834.9169739055504
 20
194.263561093072
 30
0.0
 10
834.9105893898776
 20
194.2496198132247
 30
0.0
 10
834.8791402268457
 20
194.1793363147834
 30
0.0
 10
834.855496343918
 20
194.1212782790908
 30
0.0
 10
834.8335416914741
 20
194.0611417465338
 30
0.0
1001
ACAD_OBJECT_CHANGE_GUID
1070
     0
1071
        0
1070
     0
1070
     0
1070
     0
1070
     0
1070
     0
1070
     0
1070
     0
1070
     0
1070
     0
1070
     0
1070
     0
1071
        0
1070
     0
1070
     0
1070
     0
1070
     0
1070
     0
1070
     0
1070
     0
1070
     0
1070
     0
1070
     0
  0
SPLINE
  5
F6B
330
1F
100
AcDbEntity
  8
1
  6
Continuous
 62
   155
370
    35
100
AcDbSpline
210
0.0
220
0.0
230
1.0
 70
     8
 71
     3
 72
    32
 73
    28
 74
     0
 42
0.000000001
 43
0.0000000001
 40
0.0
 40
0.0
 40
0.0
 40
0.0
 40
0.1249999999999991
 40
0.1249999999999991
 40
0.1874999999999983
 40
0.1874999999999983
 40
0.2187499999999981
 40
0.2187499999999981
 40
0.249999999999998
 40
0.249999999999998
 40
0.3749999999999974
 40
0.3749999999999974
 40
0.4374999999999968
 40
0.4374999999999968
 40
0.4999999999999961
 40
0.4999999999999961
 40
0.6249999999999955
 40
0.6249999999999955
 40
0.6874999999999955
 40
0.6874999999999955
 40
0.7187499999999961
 40
0.7187499999999961
 40
0.7499999999999968
 40
0.7499999999999968
 40
0.8749999999999984
 40
0.8749999999999984
 40
1.0
 40
1.0
 40
1.0
 40
1.0
 10
834.8335416914741
 20
192.3343621819122
 30
0.0
 10
834.8555253394874
 20
192.2741462268723
 30
0.0
 10
834.879098379462
 20
192.2162937965018
 30
0.0
 10
834.916546002379
 20
192.1325560054178
 30
0.0
 10
834.9293766014634
 20
192.1051545117979
 30
0.0
 10
834.9491049488122
 20
192.064787221759
 30
0.0
 10
834.9557708739782
 20
192.0514356515227
 30
0.0
 10
834.9692158797484
 20
192.0250537548358
 30
0.0
 10
834.9759493900045
 20
192.0121118713715
 30
0.0
 10
835.0096488478301
 20
191.9485771010954
 30
0.0
 10
835.0367201278277
 20
191.9014675360793
 30
0.0
 10
835.0769473695418
 20
191.835584664477
 30
0.0
 10
835.0902913819487
 20
191.8144285632073
 30
0.0
 10
835.1167273641991
 20
191.7736762398624
 30
0.0
 10
835.1296347781213
 20
191.7543638524902
 30
0.0
 10
835.1671817012279
 20
191.6995123285131
 30
0.0
 10
835.190706375031
 20
191.6669617929457
 30
0.0
 10
835.2228612836613
 20
191.6238110423316
 30
0.0
 10
835.233053477282
 20
191.6103814697893
 30
0.0
 10
835.2473961385234
 20
191.5916997966712
 30
0.0
 10
835.2520093464161
 20
191.5857296123357
 30
0.0
 10
835.2608063858303
 20
191.5743948231787
 30
0.0
 10
835.265001296765
 20
191.5690157656131
 30
0.0
 10
835.284912887829
 20
191.5435485768554
 30
0.0
 10
835.2974614617817
 20
191.5276983575896
 30
0.0
 10
835.314326254794
 20
191.5054352033673
 30
0.0
 10
835.3184086799583
 20
191.4993124502617
 30
0.0
 10
835.3178584174612
 20
191.4982573172885
 30
0.0
1001
ACAD_OBJECT_CHANGE_GUID
1070
     0
1071
        0
1070
     0
1070
     0
1070
     0
1070
     0
1070
     0
1070
     0
1070
     0
1070
     0
1070
     0
1070
     0
1070
     0
1071
        0
1070
     0
1070
     0
1070
     0
1070
     0
1070
     0
1070
     0
1070
     0
1070
     0
1070
     0
1070
     0
  0
SPLINE
  5
F6C
330
1F
100
AcDbEntity
  8
1
  6
Continuous
 62
   155
370
    35
100
AcDbSpline
210
0.0
220
0.0
230
1.0
 70
     8
 71
     3
 72
    10
 73
     6
 74
     0
 42
0.000000001
 43
0.0000000001
 40
0.0
 40
0.0
 40
0.0
 40
0.0
 40
0.0216243071225689
 40
0.0216243071225689
 40
1.0
 40
1.0
 40
1.0
 40
1.0
 10
825.4499987055412
 20
191.6629941508103
 30
0.0
 10
825.4500161525831
 20
191.6629548683655
 30
0.0
 10
825.4500335994219
 20
191.6629155859208
 30
0.0
 10
825.4508404061349
 20
191.661098998477
 30
0.0
 10
825.4516293511354
 20
191.6593216934217
 30
0.0
 10
825.4524178823656
 20
191.6575443883106
 30
0.0
1001
ACAD_OBJECT_CHANGE_GUID
1070
     0
1071
        0
1070
     0
1070
     0
1070
     0
1070
     0
1070
     0
1070
     0
1070
     0
1070
     0
1070
     0
1070
     0
1070
     0
1071
        0
1070
     0
1070
     0
1070
     0
1070
     0
1070
     0
1070
     0
1070
     0
1070
     0
1070
     0
1070
     0
  0
SPLINE
  5
F6D
330
1F
100
AcDbEntity
  8
1
  6
Continuous
 62
   155
370
    35
100
AcDbSpline
210
0.0
220
0.0
230
1.0
 70
     8
 71
     3
 72
     8
 73
     4
 74
     0
 42
0.000000001
 43
0.0000000001
 40
0.0
 40
0.0
 40
0.0
 40
0.0
 40
1.0
 40
1.0
 40
1.0
 40
1.0
 10
825.0817759195001
 20
191.493102863278
 30
0.0
 10
825.0808810213197
 20
191.4948211910982
 30
0.0
 10
825.0799856025215
 20
191.4965393427516
 30
0.0
 10
825.0790896614576
 20
191.4982573172883
 30
0.0
1001
ACAD_OBJECT_CHANGE_GUID
1070
     0
1071
        0
1070
     0
1070
     0
1070
     0
1070
     0
1070
     0
1070
     0
1070
     0
1070
     0
1070
     0
1070
     0
1070
     0
1071
        0
1070
     0
1070
     0
1070
     0
1070
     0
1070
     0
1070
     0
1070
     0
1070
     0
1070
     0
1070
     0
  0
SPLINE
  5
F6E
330
1F
100
AcDbEntity
  8
1
  6
Continuous
 62
   155
370
    35
100
AcDbSpline
210
0.0
220
0.0
230
1.0
 70
     8
 71
     3
 72
    10
 73
     6
 74
     0
 42
0.000000001
 43
0.0000000001
 40
0.0
 40
0.0
 40
0.0
 40
0.0
 40
0.0216243071225633
 40
0.0216243071225633
 40
1.0
 40
1.0
 40
1.0
 40
1.0
 10
834.9469493733746
 20
194.7325097776357
 30
0.0
 10
834.9469319263331
 20
194.7325490600805
 30
0.0
 10
834.9469144794939
 20
194.7325883425252
 30
0.0
 10
834.9461076727809
 20
194.734404929969
 30
0.0
 10
834.9453187277804
 20
194.7361822350243
 30
0.0
 10
834.9445301965502
 20
194.7379595401354
 30
0.0
1001
ACAD_OBJECT_CHANGE_GUID
1070
     0
1071
        0
1070
     0
1070
     0
1070
     0
1070
     0
1070
     0
1070
     0
1070
     0
1070
     0
1070
     0
1070
     0
1070
     0
1071
        0
1070
     0
1070
     0
1070
     0
1070
     0
1070
     0
1070
     0
1070
     0
1070
     0
1070
     0
1070
     0
  0
SPLINE
  5
F6F
330
1F
100
AcDbEntity
  8
1
  6
Continuous
 62
   155
370
    35
100
AcDbSpline
210
0.0
220
0.0
230
1.0
 70
     8
 71
     3
 72
     8
 73
     4
 74
     0
 42
0.000000001
 43
0.0000000001
 40
0.0
 40
0.0
 40
0.0
 40
0.0
 40
1.0
 40
1.0
 40
1.0
 40
1.0
 10
835.3151721594157
 20
194.902401065168
 30
0.0
 10
835.316067057596
 20
194.9006827373478
 30
0.0
 10
835.3169624763943
 20
194.8989645856944
 30
0.0
 10
835.3178584174582
 20
194.8972466111579
 30
0.0
1001
ACAD_OBJECT_CHANGE_GUID
1070
     0
1071
        0
1070
     0
1070
     0
1070
     0
1070
     0
1070
     0
1070
     0
1070
     0
1070
     0
1070
     0
1070
     0
1070
     0
1071
        0
1070
     0
1070
     0
1070
     0
1070
     0
1070
     0
1070
     0
1070
     0
1070
     0
1070
     0
1070
     0
  0
SPLINE
  5
F70
330
1F
100
AcDbEntity
  8
1
  6
Continuous
 62
   155
370
    35
100
AcDbSpline
210
0.0
220
0.0
230
1.0
 70
     8
 71
     3
 72
     8
 73
     4
 74
     0
 42
0.000000001
 43
0.0000000001
 40
0.0
 40
0.0
 40
0.0
 40
0.0
 40
1.0
 40
1.0
 40
1.0
 40
1.0
 10
835.3178584174582
 20
191.4982573172883
 30
0.0
 10
835.3169624763943
 20
191.4965393427516
 30
0.0
 10
835.316067057596
 20
191.4948211910982
 30
0.0
 10
835.3151721594155
 20
191.493102863278
 30
0.0
1001
ACAD_OBJECT_CHANGE_GUID
1070
     0
1071
        0
1070
     0
1070
     0
1070
     0
1070
     0
1070
     0
1070
     0
1070
     0
1070
     0
1070
     0
1070
     0
1070
     0
1071
        0
1070
     0
1070
     0
1070
     0
1070
     0
1070
     0
1070
     0
1070
     0
1070
     0
1070
     0
1070
     0
  0
SPLINE
  5
F71
330
1F
100
AcDbEntity
  8
1
  6
Continuous
 62
   155
370
    35
100
AcDbSpline
210
0.0
220
0.0
230
1.0
 70
     8
 71
     3
 72
    10
 73
     6
 74
     0
 42
0.000000001
 43
0.0000000001
 40
0.0
 40
0.0
 40
0.0
 40
0.0
 40
0.9783756928774288
 40
0.9783756928774288
 40
1.0
 40
1.0
 40
1.0
 40
1.0
 10
834.9445301965502
 20
191.6575443883106
 30
0.0
 10
834.9453187277804
 20
191.6593216934217
 30
0.0
 10
834.9461076727807
 20
191.661098998477
 30
0.0
 10
834.9469144794939
 20
191.6629155859208
 30
0.0
 10
834.9469319263327
 20
191.6629548683655
 30
0.0
 10
834.9469493733746
 20
191.6629941508103
 30
0.0
1001
ACAD_OBJECT_CHANGE_GUID
1070
     0
1071
        0
1070
     0
1070
     0
1070
     0
1070
     0
1070
     0
1070
     0
1070
     0
1070
     0
1070
     0
1070
     0
1070
     0
1071
        0
1070
     0
1070
     0
1070
     0
1070
     0
1070
     0
1070
     0
1070
     0
1070
     0
1070
     0
1070
     0
  0
SPLINE
  5
F72
330
1F
100
AcDbEntity
  8
1
  6
Continuous
 62
   155
370
    35
100
AcDbSpline
210
0.0
220
0.0
230
1.0
 70
     8
 71
     3
 72
     8
 73
     4
 74
     0
 42
0.000000001
 43
0.0000000001
 40
0.0
 40
0.0
 40
0.0
 40
0.0
 40
1.0
 40
1.0
 40
1.0
 40
1.0
 10
825.0790896614576
 20
194.8972466111577
 30
0.0
 10
825.0799856025215
 20
194.8989645856943
 30
0.0
 10
825.0808810213197
 20
194.9006827373478
 30
0.0
 10
825.0817759195001
 20
194.9024010651679
 30
0.0
1001
ACAD_OBJECT_CHANGE_GUID
1070
     0
1071
        0
1070
     0
1070
     0
1070
     0
1070
     0
1070
     0
1070
     0
1070
     0
1070
     0
1070
     0
1070
     0
1070
     0
1071
        0
1070
     0
1070
     0
1070
     0
1070
     0
1070
     0
1070
     0
1070
     0
1070
     0
1070
     0
1070
     0
  0
SPLINE
  5
F73
330
1F
100
AcDbEntity
  8
1
  6
Continuous
 62
   155
370
    35
100
AcDbSpline
210
0.0
220
0.0
230
1.0
 70
     8
 71
     3
 72
    10
 73
     6
 74
     0
 42
0.000000001
 43
0.0000000001
 40
0.0
 40
0.0
 40
0.0
 40
0.0
 40
0.9783756928774288
 40
0.9783756928774288
 40
1.0
 40
1.0
 40
1.0
 40
1.0
 10
825.4524178823656
 20
194.7379595401354
 30
0.0
 10
825.4516293511354
 20
194.7361822350242
 30
0.0
 10
825.4508404061349
 20
194.734404929969
 30
0.0
 10
825.4500335994219
 20
194.7325883425252
 30
0.0
 10
825.4500161525831
 20
194.7325490600805
 30
0.0
 10
825.4499987055412
 20
194.7325097776356
 30
0.0
1001
ACAD_OBJECT_CHANGE_GUID
1070
     0
1071
        0
1070
     0
1070
     0
1070
     0
1070
     0
1070
     0
1070
     0
1070
     0
1070
     0
1070
     0
1070
     0
1070
     0
1071
        0
1070
     0
1070
     0
1070
     0
1070
     0
1070
     0
1070
     0
1070
     0
1070
     0
1070
     0
1070
     0
  0
SPLINE
  5
F74
330
1F
100
AcDbEntity
  8
1
  6
Continuous
 62
   155
370
    35
100
AcDbSpline
210
0.0
220
0.0
230
1.0
 70
     8
 71
     3
 72
    20
 73
    16
 74
     0
 42
0.000000001
 43
0.0000000001
 40
0.0
 40
0.0
 40
0.0
 40
0.0
 40
0.1249999999999972
 40
0.1249999999999972
 40
0.2499999999999943
 40
0.2499999999999943
 40
0.499999999999994
 40
0.499999999999994
 40
0.5624999999999939
 40
0.5624999999999939
 40
0.6249999999999938
 40
0.6249999999999938
 40
0.7499999999999939
 40
0.7499999999999939
 40
1.0
 40
1.0
 40
1.0
 40
1.0
 10
825.0817759194999
 20
191.493102863278
 30
0.0
 10
825.0935458658803
 20
191.5061049257426
 30
0.0
 10
825.1059484091692
 20
191.5184346054442
 30
0.0
 10
825.1320077027255
 20
191.5417608771556
 30
0.0
 10
825.1457189922421
 20
191.5527902379102
 30
0.0
 10
825.1880770865346
 20
191.5833616168368
 30
0.0
 10
825.218072951155
 20
191.6005718535963
 30
0.0
 10
825.2577434413208
 20
191.6181587560618
 30
0.0
 10
825.265787427382
 20
191.6214778478454
 30
0.0
 10
825.2820991850835
 20
191.6277122189631
 30
0.0
 10
825.2903878526939
 20
191.6306332941243
 30
0.0
 10
825.3153228257565
 20
191.6386912061119
 30
0.0
 10
825.3321010399586
 20
191.6431536931554
 30
0.0
 10
825.3828871865909
 20
191.65389024804
 30
0.0
 10
825.417341669657
 20
191.6575424923705
 30
0.0
 10
825.4524178823656
 20
191.6575443883106
 30
0.0
1001
ACAD_OBJECT_CHANGE_GUID
1070
     0
1071
        0
1070
     0
1070
     0
1070
     0
1070
     0
1070
     0
1070
     0
1070
     0
1070
     0
1070
     0
1070
     0
1070
     0
1071
        0
1070
     0
1070
     0
1070
     0
1070
     0
1070
     0
1070
     0
1070
     0
1070
     0
1070
     0
1070
     0
  0
SPLINE
  5
F75
330
1F
100
AcDbEntity
  8
1
  6
Continuous
 62
   155
370
    35
100
AcDbSpline
210
0.0
220
0.0
230
1.0
 70
     8
 71
     3
 72
    20
 73
    16
 74
     0
 42
0.000000001
 43
0.0000000001
 40
0.0
 40
0.0
 40
0.0
 40
0.0
 40
0.1250000000000039
 40
0.1250000000000039
 40
0.2500000000000078
 40
0.2500000000000078
 40
0.5000000000000157
 40
0.5000000000000157
 40
0.5625000000000143
 40
0.5625000000000143
 40
0.6250000000000129
 40
0.6250000000000129
 40
0.7500000000000086
 40
0.7500000000000086
 40
1.0
 40
1.0
 40
1.0
 40
1.0
 10
825.4524178823656
 20
194.7379595401354
 30
0.0
 10
825.4348797734234
 20
194.7379604881056
 30
0.0
 10
825.4174156521241
 20
194.7388816552133
 30
0.0
 10
825.3826340998053
 20
194.7425484454883
 30
0.0
 10
825.365255774659
 20
194.7453125138644
 30
0.0
 10
825.3141651378189
 20
194.756201232283
 30
0.0
 10
825.2812762921635
 20
194.7668908522515
 30
0.0
 10
825.241615867236
 20
194.7845004411984
 30
0.0
 10
825.2337570506611
 20
194.7882368946052
 30
0.0
 10
825.2181886277025
 20
194.7961467004893
 30
0.0
 10
825.2104607017182
 20
194.800331655786
 30
0.0
 10
825.1877535573294
 20
194.8134109684945
 30
0.0
 10
825.1731857801352
 20
194.822855656423
 30
0.0
 10
825.1311448326914
 20
194.8533033991745
 30
0.0
 10
825.1053158087868
 20
194.8763969440762
 30
0.0
 10
825.0817759194999
 20
194.902401065168
 30
0.0
1001
ACAD_OBJECT_CHANGE_GUID
1070
     0
1071
        0
1070
     0
1070
     0
1070
     0
1070
     0
1070
     0
1070
     0
1070
     0
1070
     0
1070
     0
1070
     0
1070
     0
1071
        0
1070
     0
1070
     0
1070
     0
1070
     0
1070
     0
1070
     0
1070
     0
1070
     0
1070
     0
1070
     0
  0
SPLINE
  5
F76
330
1F
100
AcDbEntity
  8
1
  6
Continuous
 62
   155
370
    35
100
AcDbSpline
210
0.0
220
0.0
230
1.0
 70
     8
 71
     3
 72
    20
 73
    16
 74
     0
 42
0.000000001
 43
0.0000000001
 40
0.0
 40
0.0
 40
0.0
 40
0.0
 40
0.1249999999999987
 40
0.1249999999999987
 40
0.2499999999999974
 40
0.2499999999999974
 40
0.4999999999999948
 40
0.4999999999999948
 40
0.5624999999999952
 40
0.5624999999999952
 40
0.6249999999999957
 40
0.6249999999999957
 40
0.7499999999999973
 40
0.7499999999999973
 40
1.0
 40
1.0
 40
1.0
 40
1.0
 10
834.9445301965502
 20
191.6575443883105
 30
0.0
 10
834.9620683054922
 20
191.6575434403403
 30
0.0
 10
834.9795324267915
 20
191.6566222732327
 30
0.0
 10
835.0143139791105
 20
191.6529554829577
 30
0.0
 10
835.0316923042566
 20
191.6501914145815
 30
0.0
 10
835.082782941097
 20
191.639302696163
 30
0.0
 10
835.1156717867523
 20
191.6286130761945
 30
0.0
 10
835.1553322116796
 20
191.6110034872475
 30
0.0
 10
835.1631910282545
 20
191.6072670338408
 30
0.0
 10
835.1787594512131
 20
191.5993572279566
 30
0.0
 10
835.1864873771974
 20
191.5951722726599
 30
0.0
 10
835.2091945215866
 20
191.5820929599514
 30
0.0
 10
835.2237622987804
 20
191.572648272023
 30
0.0
 10
835.2658032462242
 20
191.5422005292715
 30
0.0
 10
835.2916322701288
 20
191.5191069843698
 30
0.0
 10
835.3151721594157
 20
191.493102863278
 30
0.0
1001
ACAD_OBJECT_CHANGE_GUID
1070
     0
1071
        0
1070
     0
1070
     0
1070
     0
1070
     0
1070
     0
1070
     0
1070
     0
1070
     0
1070
     0
1070
     0
1070
     0
1071
        0
1070
     0
1070
     0
1070
     0
1070
     0
1070
     0
1070
     0
1070
     0
1070
     0
1070
     0
1070
     0
  0
SPLINE
  5
F77
330
1F
100
AcDbEntity
  8
1
  6
Continuous
 62
   155
370
    35
100
AcDbSpline
210
0.0
220
0.0
230
1.0
 70
     8
 71
     3
 72
    20
 73
    16
 74
     0
 42
0.000000001
 43
0.0000000001
 40
0.0
 40
0.0
 40
0.0
 40
0.0
 40
0.1250000000000009
 40
0.1250000000000009
 40
0.2500000000000018
 40
0.2500000000000018
 40
0.5000000000000055
 40
0.5000000000000055
 40
0.5625000000000046
 40
0.5625000000000046
 40
0.6250000000000036
 40
0.6250000000000036
 40
0.7500000000000006
 40
0.7500000000000006
 40
1.0
 40
1.0
 40
1.0
 40
1.0
 10
835.3151721594157
 20
194.902401065168
 30
0.0
 10
835.3034022130355
 20
194.8893990027035
 30
0.0
 10
835.2909996697466
 20
194.8770693230017
 30
0.0
 10
835.2649403761903
 20
194.8537430512905
 30
0.0
 10
835.2512290866737
 20
194.8427136905357
 30
0.0
 10
835.2088709923814
 20
194.8121423116092
 30
0.0
 10
835.1788751277608
 20
194.7949320748497
 30
0.0
 10
835.1392046375949
 20
194.7773451723842
 30
0.0
 10
835.1311606515338
 20
194.7740260806007
 30
0.0
 10
835.1148488938322
 20
194.767791709483
 30
0.0
 10
835.1065602262217
 20
194.7648706343217
 30
0.0
 10
835.0816252531595
 20
194.7568127223341
 30
0.0
 10
835.0648470389572
 20
194.7523502352906
 30
0.0
 10
835.0140608923249
 20
194.741613680406
 30
0.0
 10
834.979606409259
 20
194.7379614360755
 30
0.0
 10
834.9445301965504
 20
194.7379595401354
 30
0.0
1001
ACAD_OBJECT_CHANGE_GUID
1070
     0
1071
        0
1070
     0
1070
     0
1070
     0
1070
     0
1070
     0
1070
     0
1070
     0
1070
     0
1070
     0
1070
     0
1070
     0
1071
        0
1070
     0
1070
     0
1070
     0
1070
     0
1070
     0
1070
     0
1070
     0
1070
     0
1070
     0
1070
     0
  0
SPLINE
  5
F78
330
1F
100
AcDbEntity
  8
1
  6
Continuous
 62
   155
370
    35
100
AcDbSpline
210
0.0
220
0.0
230
1.0
 70
     8
 71
     3
 72
    18
 73
    14
 74
     0
 42
0.000000001
 43
0.0000000001
 40
0.0
 40
0.0
 40
0.0
 40
0.0
 40
0.2500000000000076
 40
0.2500000000000076
 40
0.3750000000000115
 40
0.3750000000000115
 40
0.5000000000000152
 40
0.5000000000000152
 40
0.7500000000000134
 40
0.7500000000000134
 40
0.8750000000000067
 40
0.8750000000000067
 40
1.0
 40
1.0
 40
1.0
 40
1.0
 10
825.2300327046462
 20
195.0365939941862
 30
0.0
 10
825.2441559744143
 20
195.0209905597363
 30
0.0
 10
825.2596529062921
 20
195.0071336264864
 30
0.0
 10
825.2848770814512
 20
194.9888640832974
 30
0.0
 10
825.2936176719629
 20
194.9831970234948
 30
0.0
 10
825.3117833615871
 20
194.9727332016757
 30
0.0
 10
825.3211758264079
 20
194.9679633683178
 30
0.0
 10
825.3497315036467
 20
194.9552843849616
 30
0.0
 10
825.3694650199319
 20
194.9488708887356
 30
0.0
 10
825.4001198454893
 20
194.9423385300613
 30
0.0
 10
825.4105470159611
 20
194.9406804592348
 30
0.0
 10
825.4314162605254
 20
194.9384812682241
 30
0.0
 10
825.4418948804326
 20
194.9379290791667
 30
0.0
 10
825.4524178823656
 20
194.9379290791667
 30
0.0
1001
ACAD_OBJECT_CHANGE_GUID
1070
     0
1071
        0
1070
     0
1070
     0
1070
     0
1070
     0
1070
     0
1070
     0
1070
     0
1070
     0
1070
     0
1070
     0
1070
     0
1071
        0
1070
     0
1070
     0
1070
     0
1070
     0
1070
     0
1070
     0
1070
     0
1070
     0
1070
     0
1070
     0
  0
SPLINE
  5
F79
330
1F
100
AcDbEntity
  8
1
  6
Continuous
 62
   155
370
    35
100
AcDbSpline
210
0.0
220
0.0
230
1.0
 70
     8
 71
     3
 72
    18
 73
    14
 74
     0
 42
0.000000001
 43
0.0000000001
 40
0.0
 40
0.0
 40
0.0
 40
0.0
 40
0.2499999999999982
 40
0.2499999999999982
 40
0.3749999999999978
 40
0.3749999999999978
 40
0.4999999999999976
 40
0.4999999999999976
 40
0.7499999999999987
 40
0.7499999999999987
 40
0.8749999999999992
 40
0.8749999999999992
 40
1.0
 40
1.0
 40
1.0
 40
1.0
 10
834.9445301965504
 20
194.9379290791667
 30
0.0
 10
834.9655761917887
 20
194.9379290791667
 30
0.0
 10
834.9862491556566
 20
194.9401195269821
 30
0.0
 10
835.0167212451331
 20
194.9465605660073
 30
0.0
 10
835.0267883059439
 20
194.9492378362468
 30
0.0
 10
835.0467365425647
 20
194.9556838972382
 30
0.0
 10
835.056575853761
 20
194.959446563959
 30
0.0
 10
835.0851387804338
 20
194.9721092074979
 30
0.0
 10
835.1031362349441
 20
194.9824356894722
 30
0.0
 10
835.1285507423295
 20
195.0007794310252
 30
0.0
 10
835.1367773592695
 20
195.007397425936
 30
0.0
 10
835.1524124907937
 20
195.0213940138061
 30
0.0
 10
835.1598537364907
 20
195.0287922737631
 30
0.0
 10
835.1669153742696
 20
195.0365939941862
 30
0.0
1001
ACAD_OBJECT_CHANGE_GUID
1070
     0
1071
        0
1070
     0
1070
     0
1070
     0
1070
     0
1070
     0
1070
     0
1070
     0
1070
     0
1070
     0
1070
     0
1070
     0
1071
        0
1070
     0
1070
     0
1070
     0
1070
     0
1070
     0
1070
     0
1070
     0
1070
     0
1070
     0
1070
     0
  0
SPLINE
  5
F7A
330
1F
100
AcDbEntity
  8
1
  6
Continuous
 62
   155
370
    35
100
AcDbSpline
210
0.0
220
0.0
230
1.0
 70
     8
 71
     3
 72
    18
 73
    14
 74
     0
 42
0.000000001
 43
0.0000000001
 40
0.0
 40
0.0
 40
0.0
 40
0.0
 40
0.2500000000000026
 40
0.2500000000000026
 40
0.3750000000000036
 40
0.3750000000000036
 40
0.5000000000000047
 40
0.5000000000000047
 40
0.7499999999999974
 40
0.7499999999999974
 40
0.8749999999999984
 40
0.8749999999999984
 40
1.0
 40
1.0
 40
1.0
 40
1.0
 10
835.1669153742696
 20
191.3589099342598
 30
0.0
 10
835.1527921045015
 20
191.3745133687097
 30
0.0
 10
835.1372951726238
 20
191.3883703019596
 30
0.0
 10
835.1120709974646
 20
191.4066398451485
 30
0.0
 10
835.1033304069531
 20
191.4123069049512
 30
0.0
 10
835.0851647173286
 20
191.4227707267703
 30
0.0
 10
835.0757722525079
 20
191.4275405601282
 30
0.0
 10
835.0472165752691
 20
191.4402195434844
 30
0.0
 10
835.0274830589839
 20
191.4466330397104
 30
0.0
 10
834.9968282334264
 20
191.4531653983848
 30
0.0
 10
834.9864010629547
 20
191.4548234692112
 30
0.0
 10
834.9655318183902
 20
191.4570226602219
 30
0.0
 10
834.9550531984831
 20
191.4575748492793
 30
0.0
 10
834.9445301965502
 20
191.4575748492793
 30
0.0
1001
ACAD_OBJECT_CHANGE_GUID
1070
     0
1071
        0
1070
     0
1070
     0
1070
     0
1070
     0
1070
     0
1070
     0
1070
     0
1070
     0
1070
     0
1070
     0
1070
     0
1071
        0
1070
     0
1070
     0
1070
     0
1070
     0
1070
     0
1070
     0
1070
     0
1070
     0
1070
     0
1070
     0
  0
SPLINE
  5
F7B
330
1F
100
AcDbEntity
  8
1
  6
Continuous
 62
   155
370
    35
100
AcDbSpline
210
0.0
220
0.0
230
1.0
 70
     8
 71
     3
 72
    18
 73
    14
 74
     0
 42
0.000000001
 43
0.0000000001
 40
0.0
 40
0.0
 40
0.0
 40
0.0
 40
0.2500000000000076
 40
0.2500000000000076
 40
0.3750000000000064
 40
0.3750000000000064
 40
0.5000000000000054
 40
0.5000000000000054
 40
0.7500000000000028
 40
0.7500000000000028
 40
0.8750000000000014
 40
0.8750000000000014
 40
1.0
 40
1.0
 40
1.0
 40
1.0
 10
825.4524178823656
 20
191.4575748492793
 30
0.0
 10
825.4313718871271
 20
191.4575748492793
 30
0.0
 10
825.4106989232591
 20
191.4553844014638
 30
0.0
 10
825.3802268337825
 20
191.4489433624387
 30
0.0
 10
825.3701597729721
 20
191.4462660921993
 30
0.0
 10
825.3502115363511
 20
191.4398200312079
 30
0.0
 10
825.3403722251546
 20
191.4360573644871
 30
0.0
 10
825.3118092984818
 20
191.4233947209481
 30
0.0
 10
825.2938118439715
 20
191.4130682389739
 30
0.0
 10
825.2683973365863
 20
191.3947244974209
 30
0.0
 10
825.2601707196465
 20
191.3881065025101
 30
0.0
 10
825.2445355881221
 20
191.3741099146401
 30
0.0
 10
825.2370943424251
 20
191.3667116546829
 30
0.0
 10
825.2300327046464
 20
191.3589099342597
 30
0.0
1001
ACAD_OBJECT_CHANGE_GUID
1070
     0
1071
        0
1070
     0
1070
     0
1070
     0
1070
     0
1070
     0
1070
     0
1070
     0
1070
     0
1070
     0
1070
     0
1070
     0
1071
        0
1070
     0
1070
     0
1070
     0
1070
     0
1070
     0
1070
     0
1070
     0
1070
     0
1070
     0
1070
     0
  0
SPLINE
  5
F7C
330
1F
100
AcDbEntity
  8
1
  6
Continuous
 62
   155
370
    70
100
AcDbSpline
210
0.0
220
0.0
230
1.0
 70
    12
 71
     2
 72
     6
 73
     3
 74
     0
 42
0.000000001
 43
0.0000000001
 40
0.0
 40
0.0
 40
0.0
 40
1.0
 40
1.0
 40
1.0
 10
837.5984169241146
 20
179.0477519638606
 30
0.0
 41
0.5000009223633773
 10
837.5984454818118
 20
179.047751964223
 30
0.0
 41
0.4999990776366229
 10
837.598474039458
 20
179.047751964223
 30
0.0
 41
0.5000009223633773
1001
ACAD_OBJECT_CHANGE_GUID
1070
     0
1071
        0
1070
     0
1070
     0
1070
     0
1070
     0
1070
     0
1070
     0
1070
     0
1070
     0
1070
     0
1070
     0
1070
     0
1071
        0
1070
     0
1070
     0
1070
     0
1070
     0
1070
     0
1070
     0
1070
     0
1070
     0
1070
     0
1070
     0
  0
SPLINE
  5
F7D
330
1F
100
AcDbEntity
  8
1
  6
Continuous
 62
   155
370
    70
100
AcDbSpline
210
0.0
220
0.0
230
1.0
 70
    12
 71
     2
 72
     6
 73
     3
 74
     0
 42
0.000000001
 43
0.0000000001
 40
0.0
 40
0.0
 40
0.0
 40
1.0
 40
1.0
 40
1.0
 10
836.0984740394579
 20
177.5475234721572
 30
0.0
 41
0.5000000066957668
 10
836.0984740394579
 20
177.5476662148018
 30
0.0
 41
0.4999999933042333
 10
836.098474066617
 20
177.5478090117672
 30
0.0
 41
0.5000000066957668
1001
ACAD_OBJECT_CHANGE_GUID
1070
     0
1071
        0
1070
     0
1070
     0
1070
     0
1070
     0
1070
     0
1070
     0
1070
     0
1070
     0
1070
     0
1070
     0
1070
     0
1071
        0
1070
     0
1070
     0
1070
     0
1070
     0
1070
     0
1070
     0
1070
     0
1070
     0
1070
     0
1070
     0
  0
SPLINE
  5
F7E
330
1F
100
AcDbEntity
  8
1
  6
Continuous
 62
   155
370
    70
100
AcDbSpline
210
0.0
220
0.0
230
1.0
 70
     8
 71
     3
 72
    39
 73
    35
 74
     0
 42
0.000000001
 43
0.0000000001
 40
0.0
 40
0.0
 40
0.0
 40
0.0
 40
0.1250000000000004
 40
0.1250000000000004
 40
0.1562500000000004
 40
0.1562500000000004
 40
0.1875000000000003
 40
0.1875000000000003
 40
0.2500000000000012
 40
0.3125000000000021
 40
0.3125000000000021
 40
0.3437500000000015
 40
0.3437500000000015
 40
0.3750000000000009
 40
0.3750000000000009
 40
0.4999999999999995
 40
0.4999999999999995
 40
0.5625
 40
0.5625
 40
0.5937500000000001
 40
0.5937500000000001
 40
0.6250000000000005
 40
0.6250000000000005
 40
0.7500000000000019
 40
0.7500000000000019
 40
0.7812500000000018
 40
0.7812500000000018
 40
0.8125000000000015
 40
0.8125000000000015
 40
0.875000000000001
 40
0.875000000000001
 40
0.9375000000000003
 40
0.9375000000000003
 40
1.0
 40
1.0
 40
1.0
 40
1.0
 10
837.5984169244166
 20
179.0477519638606
 30
0.0
 10
837.4993807731938
 20
179.0477507067431
 30
0.0
 10
837.4014264584427
 20
179.0380359939551
 30
0.0
 10
837.2803260301274
 20
179.0138386432957
 30
0.0
 10
837.2561329246964
 20
179.0083784795199
 30
0.0
 10
837.2083013505555
 20
178.9963353071422
 30
0.0
 10
837.1846193705492
 20
178.9897457335881
 30
0.0
 10
837.1142625596458
 20
178.968302906401
 30
0.0
 10
837.0222879105435
 20
178.9352560705264
 30
0.0
 10
836.9339330936851
 20
178.8934154910334
 30
0.0
 10
836.8690453041303
 20
178.8586866408606
 30
0.0
 10
836.8476461695665
 20
178.846551296747
 30
0.0
 10
836.8053168113313
 20
178.8211414602093
 30
0.0
 10
836.7843750342929
 20
178.8078544070885
 30
0.0
 10
836.6820017070956
 20
178.7393024656102
 30
0.0
 10
836.6065659083565
 20
178.6772082725486
 30
0.0
 10
836.502880368981
 20
178.5734416453197
 30
0.0
 10
836.4699078187424
 20
178.5370692325547
 30
0.0
 10
836.4229096108433
 20
178.4797492362526
 30
0.0
 10
836.4076809883391
 20
178.4602077271813
 30
0.0
 10
836.37837718286
 20
178.4206333358228
 30
0.0
 10
836.3642599023188
 20
178.4005501143085
 30
0.0
 10
836.2963045304882
 20
178.2986771738802
 30
0.0
 10
836.2502845287705
 20
178.2125584919939
 30
0.0
 10
836.2032825526316
 20
178.0990833180936
 30
0.0
 10
836.1944130230131
 20
178.0760943314517
 30
0.0
 10
836.1777576269716
 20
178.0295163054212
 30
0.0
 10
836.1700119308958
 20
178.006032849607
 30
0.0
 10
836.1486211103587
 20
177.935396654288
 30
0.0
 10
836.1367597133062
 20
177.8878978522072
 30
0.0
 10
836.1177276077503
 20
177.7921031798439
 30
0.0
 10
836.1105571096056
 20
177.7438072494722
 30
0.0
 10
836.1009352376628
 20
177.646414797234
 30
0.0
 10
836.0984834842767
 20
177.5973182463623
 30
0.0
 10
836.0984740666246
 20
177.54780905246
 30
0.0
1001
ACAD_OBJECT_CHANGE_GUID
1070
     0
1071
        0
1070
     0
1070
     0
1070
     0
1070
     0
1070
     0
1070
     0
1070
     0
1070
     0
1070
     0
1070
     0
1070
     0
1071
        0
1070
     0
1070
     0
1070
     0
1070
     0
1070
     0
1070
     0
1070
     0
1070
     0
1070
     0
1070
     0
  0
SPLINE
  5
F7F
330
1F
100
AcDbEntity
  8
1
  6
Continuous
 62
   155
370
    70
100
AcDbSpline
210
0.0
220
0.0
230
1.0
 70
    12
 71
     2
 72
     6
 73
     3
 74
     0
 42
0.000000001
 43
0.0000000001
 40
0.0
 40
0.0
 40
0.0
 40
1.0
 40
1.0
 40
1.0
 10
824.298474012299
 20
177.5478090117672
 30
0.0
 41
0.5000000050148051
 10
824.2984740394579
 20
177.5476662148012
 30
0.0
 41
0.4999999949851951
 10
824.2984740394579
 20
177.5475234721572
 30
0.0
 41
0.5000000050148051
1001
ACAD_OBJECT_CHANGE_GUID
1070
     0
1071
        0
1070
     0
1070
     0
1070
     0
1070
     0
1070
     0
1070
     0
1070
     0
1070
     0
1070
     0
1070
     0
1070
     0
1071
        0
1070
     0
1070
     0
1070
     0
1070
     0
1070
     0
1070
     0
1070
     0
1070
     0
1070
     0
1070
     0
  0
SPLINE
  5
F80
330
1F
100
AcDbEntity
  8
1
  6
Continuous
 62
   155
370
    70
100
AcDbSpline
210
0.0
220
0.0
230
1.0
 70
    12
 71
     2
 72
     6
 73
     3
 74
     0
 42
0.000000001
 43
0.0000000001
 40
0.0
 40
0.0
 40
0.0
 40
1.0
 40
1.0
 40
1.0
 10
822.7984740394578
 20
179.047751964223
 30
0.0
 41
0.5000002907960947
 10
822.798502597107
 20
179.047751964223
 30
0.0
 41
0.4999997092039055
 10
822.7985311548012
 20
179.0477519638606
 30
0.0
 41
0.5000002907960947
1001
ACAD_OBJECT_CHANGE_GUID
1070
     0
1071
        0
1070
     0
1070
     0
1070
     0
1070
     0
1070
     0
1070
     0
1070
     0
1070
     0
1070
     0
1070
     0
1070
     0
1071
        0
1070
     0
1070
     0
1070
     0
1070
     0
1070
     0
1070
     0
1070
     0
1070
     0
1070
     0
1070
     0
  0
SPLINE
  5
F81
330
1F
100
AcDbEntity
  8
1
  6
Continuous
 62
   155
370
    70
100
AcDbSpline
210
0.0
220
0.0
230
1.0
 70
     8
 71
     3
 72
    39
 73
    35
 74
     0
 42
0.000000001
 43
0.0000000001
 40
0.0
 40
0.0
 40
0.0
 40
0.0
 40
0.0625000000000048
 40
0.0625000000000048
 40
0.1250000000000097
 40
0.1250000000000097
 40
0.1562500000000109
 40
0.1562500000000109
 40
0.1875000000000122
 40
0.1875000000000122
 40
0.2500000000000129
 40
0.3125000000000134
 40
0.3125000000000134
 40
0.3437500000000128
 40
0.3437500000000128
 40
0.375000000000012
 40
0.375000000000012
 40
0.5000000000000073
 40
0.5000000000000073
 40
0.5625000000000047
 40
0.5625000000000047
 40
0.5937500000000036
 40
0.5937500000000036
 40
0.6250000000000026
 40
0.6250000000000026
 40
0.7499999999999992
 40
0.7499999999999992
 40
0.7812499999999987
 40
0.7812499999999987
 40
0.8124999999999984
 40
0.8124999999999984
 40
0.8749999999999992
 40
0.8749999999999992
 40
1.0
 40
1.0
 40
1.0
 40
1.0
 10
824.2984740122912
 20
177.54780905246
 30
0.0
 10
824.298464594821
 20
177.5973172897558
 30
0.0
 10
824.2960126208473
 20
177.6465580546822
 30
0.0
 10
824.2863075696003
 20
177.7445091715403
 30
0.0
 10
824.2790545152649
 20
177.7932196470862
 30
0.0
 10
824.2645330340703
 20
177.865881813862
 30
0.0
 10
824.2590723041397
 20
177.8900743603673
 30
0.0
 10
824.2470291084966
 20
177.9379028421042
 30
0.0
 10
824.240439721678
 20
177.9615836801081
 30
0.0
 10
824.2189978289056
 20
178.0319381573687
 30
0.0
 10
824.1859531996423
 20
178.1239125868188
 30
0.0
 10
824.1441149861984
 20
178.2122720857764
 30
0.0
 10
824.1093873312731
 20
178.2771649653085
 30
0.0
 10
824.097252291812
 20
178.2985660613443
 30
0.0
 10
824.0718427728364
 20
178.3408998370878
 30
0.0
 10
824.0585574266543
 20
178.3618413413684
 30
0.0
 10
823.9900149294081
 20
178.4642134658916
 30
0.0
 10
823.9279271006983
 20
178.539653592647
 30
0.0
 10
823.8241643601014
 20
178.6433499502097
 30
0.0
 10
823.7877923033208
 20
178.6763268401936
 30
0.0
 10
823.7304708776862
 20
178.7233322325793
 30
0.0
 10
823.710932418899
 20
178.7385603200934
 30
0.0
 10
823.6713623418651
 20
178.7678646569032
 30
0.0
 10
823.6512811018116
 20
178.781982358871
 30
0.0
 10
823.5494170936743
 20
178.8499404080293
 30
0.0
 10
823.4633024836755
 20
178.8959644042712
 30
0.0
 10
823.3498267008011
 20
178.9429703660348
 30
0.0
 10
823.3268373038939
 20
178.9518406394162
 30
0.0
 10
823.280257814495
 20
178.9684973111183
 30
0.0
 10
823.2567762049853
 20
178.9762425702481
 30
0.0
 10
823.1861418789298
 20
178.9976329077848
 30
0.0
 10
823.1386436308076
 20
179.0094935609768
 30
0.0
 10
822.9949500803865
 20
179.0380370866043
 30
0.0
 10
822.8975677561823
 20
179.0477507067375
 30
0.0
 10
822.7985311544992
 20
179.0477519638606
 30
0.0
1001
ACAD_OBJECT_CHANGE_GUID
1070
     0
1071
        0
1070
     0
1070
     0
1070
     0
1070
     0
1070
     0
1070
     0
1070
     0
1070
     0
1070
     0
1070
     0
1070
     0
1071
        0
1070
     0
1070
     0
1070
     0
1070
     0
1070
     0
1070
     0
1070
     0
1070
     0
1070
     0
1070
     0
  0
SPLINE
  5
F82
330
1F
100
AcDbEntity
  8
1
  6
Continuous
 62
   155
370
    70
100
AcDbSpline
210
0.0
220
0.0
230
1.0
 70
     8
 71
     3
 72
    17
 73
    13
 74
     0
 42
0.000000001
 43
0.0000000001
 40
0.0
 40
0.0
 40
0.0
 40
0.0
 40
0.0598014754097789
 40
0.0598014754097789
 40
0.1196029508195583
 40
0.2392059016391182
 40
0.2392059016391182
 40
0.4784118032782447
 40
0.4784118032782447
 40
0.9568236065564958
 40
0.9568236065564958
 40
1.0
 40
1.0
 40
1.0
 40
1.0
 10
835.7473786868656
 20
193.742652617554
 30
0.0
 10
835.7453366531185
 20
193.7372145883239
 30
0.0
 10
835.7432959258868
 20
193.7316841060532
 30
0.0
 10
835.7393134617543
 20
193.720696258662
 30
0.0
 10
835.7334397819416
 20
193.7041950556633
 30
0.0
 10
835.7278636842142
 20
193.6876347126812
 30
0.0
 10
835.7171028311899
 20
193.6544330392199
 30
0.0
 10
835.7104503928404
 20
193.6321906091269
 30
0.0
 10
835.6920270335885
 20
193.5651228898383
 30
0.0
 10
835.6817856911856
 20
193.5199576495805
 30
0.0
 10
835.6728201187092
 20
193.4701709736632
 30
0.0
 10
835.672094432998
 20
193.466045620081
 30
0.0
 10
835.6713852424505
 20
193.4619161514032
 30
0.0
1001
ACAD_OBJECT_CHANGE_GUID
1070
     0
1071
        0
1070
     0
1070
     0
1070
     0
1070
     0
1070
     0
1070
     0
1070
     0
1070
     0
1070
     0
1070
     0
1070
     0
1071
        0
1070
     0
1070
     0
1070
     0
1070
     0
1070
     0
1070
     0
1070
     0
1070
     0
1070
     0
1070
     0
  0
SPLINE
  5
F83
330
1F
100
AcDbEntity
  8
1
  6
Continuous
 62
   155
370
    70
100
AcDbSpline
210
0.0
220
0.0
230
1.0
 70
     8
 71
     3
 72
     8
 73
     4
 74
     0
 42
0.000000001
 43
0.0000000001
 40
0.0
 40
0.0
 40
0.0
 40
0.0
 40
1.0
 40
1.0
 40
1.0
 40
1.0
 10
835.708191360649
 20
192.7717910869908
 30
0.0
 10
835.7196116624292
 20
192.731687764361
 30
0.0
 10
835.7326601828983
 20
192.6920473598844
 30
0.0
 10
835.7473786868656
 20
192.652851310892
 30
0.0
1001
ACAD_OBJECT_CHANGE_GUID
1070
     0
1071
        0
1070
     0
1070
     0
1070
     0
1070
     0
1070
     0
1070
     0
1070
     0
1070
     0
1070
     0
1070
     0
1070
     0
1071
        0
1070
     0
1070
     0
1070
     0
1070
     0
1070
     0
1070
     0
1070
     0
1070
     0
1070
     0
1070
     0
  0
MTEXT
  5
12E4
330
1F
100
AcDbEntity
  8
0
370
    70
100
AcDbMText
 10
1154.875985803901
 20
95.83538689019787
 30
0.0
 40
0.18
 41
0.0
 71
     5
 72
     1
  1
\A1;\H27.777778x;1000
 73
     1
 44
1.0
1001
ACAD
1000
DSTYLE
1002
{
1070
   340
1005
11
1002
}
1000
MTEXTBEGIN
1070
    73
1070
     1
1070
    44
1040
1.0
1070
    74
1070
     0
1000
MTEXTEND
  0
MTEXT
  5
12E5
330
1F
100
AcDbEntity
  8
0
370
    70
100
AcDbMText
 10
652.4521223319226
 20
159.383330276001
 30
0.0
 40
0.18
 41
0.0
 71
     5
 72
     1
  1
\A1;\H27.777778x;500
 73
     1
 44
1.0
1001
ACAD
1000
DSTYLE
1002
{
1070
   340
1005
11
1002
}
1000
MTEXTBEGIN
1070
    73
1070
     1
1070
    44
1040
1.0
1070
    74
1070
     0
1000
MTEXTEND
  0
MTEXT
  5
12E6
330
1F
100
AcDbEntity
  8
0
370
    70
100
AcDbMText
 10
399.8160397577035
 20
229.7765348956736
 30
0.0
 40
0.18
 41
0.0
 71
     5
 72
     1
  1
\A1;\H27.777778x;250
 73
     1
 44
1.0
1001
ACAD
1000
DSTYLE
1002
{
1070
   340
1005
11
1002
}
1000
MTEXTBEGIN
1070
    73
1070
     1
1070
    44
1040
1.0
1070
    74
1070
     0
1000
MTEXTEND
  0
ENDSEC
  0
SECTION
  2
OBJECTS
  0
DICTIONARY
  5
C
330
0
100
AcDbDictionary
281
     1
  3
ACAD_CIP_PREVIOUS_PRODUCT_INFO
350
12F1
  3
ACAD_COLOR
350
25C
  3
ACAD_DETAILVIEWSTYLE
350
259
  3
ACAD_GROUP
350
D
  3
ACAD_IMAGE_VARS
350
12E7
  3
ACAD_LAYOUT
350
1A
  3
ACAD_MATERIAL
350
43
  3
ACAD_MLEADERSTYLE
350
6B
  3
ACAD_MLINESTYLE
350
17
  3
ACAD_PLOTSETTINGS
350
19
  3
ACAD_PLOTSTYLENAME
350
E
  3
ACAD_SCALELIST
350
47
  3
ACAD_SECTIONVIEWSTYLE
350
25A
  3
ACAD_TABLESTYLE
350
69
  3
ACAD_VISUALSTYLE
350
2A
  3
ACDB_RECOMPOSE_DATA
350
1312
  3
AcDbVariableDictionary
350
216
  3
AcDsDecomposeData
350
131A
  3
DWGPROPS
350
1313
  0
DICTIONARY
  5
12E1
330
2
100
AcDbDictionary
280
     1
281
     1
  3
ACAD_LAYERSTATES
360
12E2
  0
DICTIONARY
  5
7A4
330
1F
100
AcDbDictionary
280
     1
281
     1
  3
ACAD_SORTENTS
360
7A5
  0
XRECORD
  5
12F1
102
{ACAD_REACTORS
330
C
102
}
330
C
100
AcDbXrecord
280
     1
300
ACD
300
2019
300
ACD_F_S
  0
DICTIONARY
  5
25C
102
{ACAD_REACTORS
330
C
102
}
330
C
100
AcDbDictionary
281
     1
  0
DICTIONARY
  5
259
102
{ACAD_REACTORS
330
C
102
}
330
C
100
AcDbDictionary
281
     1
  3
Metric50
350
12EB
  0
DICTIONARY
  5
D
102
{ACAD_REACTORS
330
C
102
}
330
C
100
AcDbDictionary
281
     1
  0
RASTERVARIABLES
  5
12E7
102
{ACAD_REACTORS
330
C
102
}
330
C
100
AcDbRasterVariables
 90
        0
 70
     1
 71
     1
 72
     1
  0
DICTIONARY
  5
1A
102
{ACAD_REACTORS
330
C
102
}
330
C
100
AcDbDictionary
281
     1
  3
Layout1
350
1E
  3
Layout2
350
26
  3
Model
350
22
  0
DICTIONARY
  5
43
102
{ACAD_REACTORS
330
C
102
}
330
C
100
AcDbDictionary
281
     1
  3
ByBlock
350
45
  3
ByLayer
350
44
  3
Global
350
46
  0
DICTIONARY
  5
6B
102
{ACAD_REACTORS
330
C
102
}
330
C
100
AcDbDictionary
281
     1
  3
Standard
350
6C
  0
DICTIONARY
  5
17
102
{ACAD_REACTORS
330
C
102
}
330
C
100
AcDbDictionary
281
     1
  3
Standard
350
18
  0
DICTIONARY
  5
19
102
{ACAD_REACTORS
330
C
102
}
330
C
100
AcDbDictionary
281
     1
  0
ACDBDICTIONARYWDFLT
  5
E
102
{ACAD_REACTORS
330
C
102
}
330
C
100
AcDbDictionary
281
     1
  3
Normal
350
F
100
AcDbDictionaryWithDefault
340
F
  0
DICTIONARY
  5
47
102
{ACAD_REACTORS
330
C
102
}
330
C
100
AcDbDictionary
281
     1
  3
A0
350
48
  3
A1
350
49
  3
A2
350
4A
  3
A3
350
4B
  3
A4
350
4C
  3
A5
350
4D
  3
A6
350
4E
  3
A7
350
4F
  3
A8
350
50
  3
A9
350
51
  3
B0
350
52
  3
B1
350
53
  3
B2
350
54
  3
B3
350
55
  3
B4
350
56
  3
B5
350
57
  3
B6
350
58
  3
B7
350
59
  3
B8
350
5A
  3
B9
350
5B
  3
C0
350
5C
  3
C1
350
5D
  3
C2
350
5E
  3
C3
350
5F
  3
C4
350
60
  3
C5
350
61
  3
C6
350
62
  3
C7
350
63
  3
C8
350
64
  3
C9
350
65
  3
D0
350
66
  3
D1
350
67
  3
D2
350
68
  0
DICTIONARY
  5
25A
102
{ACAD_REACTORS
330
C
102
}
330
C
100
AcDbDictionary
281
     1
  3
Metric50
350
12EA
  0
DICTIONARY
  5
69
102
{ACAD_REACTORS
330
C
102
}
330
C
100
AcDbDictionary
281
     1
  3
Standard
350
6A
  0
DICTIONARY
  5
2A
102
{ACAD_REACTORS
330
C
102
}
330
C
100
AcDbDictionary
281
     1
  3
2dWireframe
350
2F
  3
Basic
350
32
  3
Brighten
350
36
  3
ColorChange
350
3A
  3
Conceptual
350
34
  3
Dim
350
35
  3
EdgeColorOff
350
3D
  3
Facepattern
350
39
  3
Flat
350
2B
  3
FlatWithEdges
350
2C
  3
Gouraud
350
2D
  3
GouraudWithEdges
350
2E
  3
Hidden
350
31
  3
JitterOff
350
3B
  3
Linepattern
350
38
  3
OverhangOff
350
3C
  3
Realistic
350
33
  3
Shaded
350
42
  3
Shaded with edges
350
41
  3
Shades of Gray
350
3E
  3
Sketchy
350
3F
  3
Thicken
350
37
  3
Wireframe
350
30
  3
X-Ray
350
40
  0
XRECORD
  5
1312
102
{ACAD_REACTORS
330
C
102
}
330
C
100
AcDbXrecord
280
     1
 90
        1
330
6A
  0
DICTIONARY
  5
216
102
{ACAD_REACTORS
330
C
102
}
330
C
100
AcDbDictionary
281
     1
  3
CANNOSCALE
350
12B8
  3
CMLEADERSTYLE
350
258
  3
CTABLESTYLE
350
257
  3
CVIEWDETAILSTYLE
350
1305
  3
CVIEWSECTIONSTYLE
350
1306
  3
DIMASSOC
350
1233
  3
HIDETEXT
350
1232
  3
INDEXCTL
350
130B
  3
LATITUDE
350
130D
  3
LAYEREVAL
350
1308
  3
LAYERNOTIFY
350
1309
  3
LIGHTINGUNITS
350
1307
  3
LONGITUDE
350
130E
  3
MSLTSCALE
350
218
  3
PROJECTNAME
350
1234
  3
SOLIDHIST
350
130C
  3
SORTENTS
350
130A
  3
XCLIPFRAME
350
130F
  0
DICTIONARY
  5
131A
102
{ACAD_REACTORS
330
C
102
}
330
C
100
AcDbDictionary
281
     1
  3
AcDsRecords
350
131C
  3
AcDsSchemas
350
131B
1001
ACAD
1070
     2
  0
XRECORD
  5
1313
102
{ACAD_REACTORS
330
C
102
}
330
C
100
AcDbXrecord
280
     1
  1
DWGPROPS COOKIE
  2

  3

  4

  6

  7

  8
Rolland.luo
  9

300
=
301
=
302
=
303
=
304
=
305
=
306
=
307
=
308
=
309
=
 40
0.030611712962963
 41
2458905.377719908
 42
2460063.565057871
  1

 90
        0
  0
DICTIONARY
  5
12E2
102
{ACAD_REACTORS
330
12E1
102
}
330
12E1
100
AcDbDictionary
281
     1
  0
SORTENTSTABLE
  5
7A5
102
{ACAD_REACTORS
330
7A4
102
}
330
7A4
100
AcDbSortentsTable
330
1F
331
647
  5
68E
331
6DC
  5
6FC
331
6DD
  5
6FD
331
6DE
  5
6FE
331
6E4
  5
6FF
331
6E5
  5
701
331
6E7
  5
703
331
6E9
  5
706
331
6EA
  5
707
331
6ED
  5
70A
331
6F1
  5
723
331
703
  5
735
331
704
  5
752
331
706
  5
754
331
707
  5
755
331
708
  5
756
331
70A
  5
758
331
75F
  5
77D
331
760
  5
77E
331
761
  5
77F
331
762
  5
780
331
763
  5
781
331
764
  5
782
331
765
  5
783
331
766
  5
784
331
767
  5
785
331
769
  5
787
331
76B
  5
789
331
771
  5
79F
331
773
  5
7A1
331
776
  5
7A7
331
777
  5
7B5
331
79C
  5
7DE
331
79D
  5
7DF
331
7A0
  5
7EA
331
7A1
  5
7EB
331
7C7
  5
7FE
331
81C
  5
837
331
81D
  5
838
331
81E
  5
839
331
81F
  5
83A
331
820
  5
83C
331
822
  5
83E
331
824
  5
841
331
825
  5
842
331
828
  5
845
331
82C
  5
851
331
83E
  5
867
331
83F
  5
868
331
841
  5
86A
331
842
  5
86B
331
843
  5
86C
331
845
  5
86E
331
86A
  5
88F
331
86B
  5
890
331
86C
  5
891
331
86D
  5
892
331
86E
  5
893
331
86F
  5
894
331
870
  5
895
331
871
  5
896
331
872
  5
897
331
874
  5
899
331
876
  5
89B
331
87C
  5
994
331
87E
  5
996
331
881
  5
999
331
882
  5
99A
331
897
  5
9A7
331
898
  5
9A8
331
89B
  5
9AB
331
89C
  5
9AC
331
996
  5
62E
331
997
  5
62F
331
998
  5
630
331
999
  5
635
331
99A
  5
636
331
99B
  5
637
331
99C
  5
627
331
99D
  5
628
331
99E
  5
629
331
99F
  5
62A
331
9A0
  5
62B
331
9A1
  5
62C
331
9A2
  5
62D
331
9AA
  5
619
331
9AB
  5
61A
331
9AC
  5
61B
331
9AD
  5
61C
331
9AE
  5
61D
331
9AF
  5
61E
331
9B0
  5
61F
  0
ACDBDETAILVIEWSTYLE
  5
12EB
102
{ACAD_XDICTIONARY
360
135C
102
}
102
{ACAD_REACTORS
330
259
102
}
330
259
100
AcDbModelDocViewStyle
 70
     0
  3
Metric50
290
     0
100
AcDbDetailViewStyle
 70
     0
 71
     0
 90
        3
 71
     1
340
11
 40
5.0
340
0
 40
5.0
300

 40
0.0
280
     1
 71
     2
340
16
 90
       25
 71
     3
340
11
 40
5.0
 90
        0
 40
15.0
 90
        1
300
%<\AcVar ViewDetailId>% (%<\AcVar ViewScale \f "%sn">%)
 71
     4
340
16
 90
       25
340
16
 90
       25
280
     0
  0
LAYOUT
  5
1E
102
{ACAD_XDICTIONARY
360
131D
102
}
102
{ACAD_REACTORS
330
1A
102
}
330
1A
100
AcDbPlotSettings
  1

  2
none_device
  4

  6

 40
0.0
 41
0.0
 42
0.0
 43
0.0
 44
0.0
 45
0.0
 46
0.0
 47
0.0
 48
0.0
 49
0.0
140
0.0
141
0.0
142
1.0
143
1.0
 70
   688
 72
     0
 73
     0
 74
     5
  7
Monochrome.ctb
 75
    16
147
1.0
148
0.0
149
0.0
100
AcDbLayout
  1
Layout1
 70
     1
 71
     1
 10
-0.5
 20
-0.5
 11
5.0
 21
5.0
 12
0.0
 22
0.0
 32
0.0
 14
-0.5
 24
-0.5
 34
-0.5
 15
5.0
 25
5.0
 35
5.0
146
0.0
 13
0.0
 23
0.0
 33
0.0
 16
1.0
 26
0.0
 36
0.0
 17
0.0
 27
1.0
 37
0.0
 76
     0
330
1B
  0
LAYOUT
  5
26
102
{ACAD_XDICTIONARY
360
1321
102
}
102
{ACAD_REACTORS
330
1A
102
}
330
1A
100
AcDbPlotSettings
  1

  2
none_device
  4

  6

 40
0.0
 41
0.0
 42
0.0
 43
0.0
 44
0.0
 45
0.0
 46
0.0
 47
0.0
 48
0.0
 49
0.0
140
0.0
141
0.0
142
1.0
143
1.0
 70
   688
 72
     0
 73
     0
 74
     5
  7
Monochrome.ctb
 75
    16
147
1.0
148
0.0
149
0.0
100
AcDbLayout
  1
Layout2
 70
     1
 71
     2
 10
0.0
 20
0.0
 11
0.0
 21
0.0
 12
0.0
 22
0.0
 32
0.0
 14
0.0
 24
0.0
 34
0.0
 15
0.0
 25
0.0
 35
0.0
146
0.0
 13
0.0
 23
0.0
 33
0.0
 16
1.0
 26
0.0
 36
0.0
 17
0.0
 27
1.0
 37
0.0
 76
     0
330
23
  0
LAYOUT
  5
22
102
{ACAD_XDICTIONARY
360
131F
102
}
102
{ACAD_REACTORS
330
1A
102
}
330
1A
100
AcDbPlotSettings
  1

  2
None
  4
Letter_(8.50_x_11.00_Inches)
  6

 40
6.349999999999998
 41
6.349999999999998
 42
6.350005079999998
 43
6.350005079999998
 44
215.9
 45
279.4
 46
0.0
 47
0.0
 48
0.0
 49
0.0
140
0.0
141
0.0
142
1.0
143
1.0
 70
  1712
 72
     0
 73
     0
 74
     0
  7
Monochrome.ctb
 75
     0
147
1.0
148
0.0
149
0.0
100
AcDbLayout
  1
Model
 70
     1
 71
     0
 10
-0.5
 20
-0.5
 11
5.0
 21
5.0
 12
0.0
 22
0.0
 32
0.0
 14
-0.5
 24
-0.5
 34
-0.5
 15
5.0
 25
5.0
 35
5.0
146
0.0
 13
0.0
 23
0.0
 33
0.0
 16
1.0
 26
0.0
 36
0.0
 17
0.0
 27
1.0
 37
0.0
 76
     0
330
1F
331
29
  0
MATERIAL
  5
45
102
{ACAD_XDICTIONARY
360
1355
102
}
102
{ACAD_REACTORS
330
43
102
}
330
43
100
AcDbMaterial
  1
ByBlock
 72
     0
 77
     0
171
     0
175
     0
179
     0
  0
MATERIAL
  5
44
102
{ACAD_XDICTIONARY
360
1353
102
}
102
{ACAD_REACTORS
330
43
102
}
330
43
100
AcDbMaterial
  1
ByLayer
 72
     0
 77
     0
171
     0
175
     0
179
     0
  0
MATERIAL
  5
46
102
{ACAD_XDICTIONARY
360
1357
102
}
102
{ACAD_REACTORS
330
43
102
}
330
43
100
AcDbMaterial
  1
Global
 72
     0
 77
     0
171
     0
175
     0
179
     0
  0
MLEADERSTYLE
  5
6C
102
{ACAD_REACTORS
330
6B
102
}
330
6B
100
AcDbMLeaderStyle
170
     2
171
     1
172
     0
 90
        2
 40
0.0
 41
0.0
173
     1
 91
-1056964608
340
14
 92
       -2
290
     1
 42
0.09
291
     1
 43
0.36
  3
Standard
 44
0.18
300

342
11
174
     1
178
     6
175
     1
176
     0
 93
-1056964608
 45
0.18
292
     0
297
     0
 46
0.18
 94
-1056964608
 47
1.0
 49
1.0
140
1.0
293
     1
141
0.0
294
     1
177
     0
142
1.0
295
     0
296
     0
143
0.125
1001
ACAD_MLEADERVER
1070
     2
  0
MLINESTYLE
  5
18
102
{ACAD_REACTORS
330
17
102
}
330
17
100
AcDbMlineStyle
  2
STANDARD
 70
     0
  3

 62
   256
 51
90.0
 52
90.0
 71
     2
 49
0.5
 62
   256
  6
BYLAYER
 49
-0.5
 62
   256
  6
BYLAYER
  0
ACDBPLACEHOLDER
  5
F
102
{ACAD_REACTORS
330
E
102
}
330
E
  0
SCALE
  5
48
102
{ACAD_REACTORS
330
47
102
}
330
47
100
AcDbScale
 70
     0
300
1:1
140
1.0
141
1.0
290
     1
  0
SCALE
  5
49
102
{ACAD_REACTORS
330
47
102
}
330
47
100
AcDbScale
 70
     0
300
1:2
140
1.0
141
2.0
290
     0
  0
SCALE
  5
4A
102
{ACAD_REACTORS
330
47
102
}
330
47
100
AcDbScale
 70
     0
300
1:4
140
1.0
141
4.0
290
     0
  0
SCALE
  5
4B
102
{ACAD_REACTORS
330
47
102
}
330
47
100
AcDbScale
 70
     0
300
1:5
140
1.0
141
5.0
290
     0
  0
SCALE
  5
4C
102
{ACAD_REACTORS
330
47
102
}
330
47
100
AcDbScale
 70
     0
300
1:8
140
1.0
141
8.0
290
     0
  0
SCALE
  5
4D
102
{ACAD_REACTORS
330
47
102
}
330
47
100
AcDbScale
 70
     0
300
1:10
140
1.0
141
10.0
290
     0
  0
SCALE
  5
4E
102
{ACAD_REACTORS
330
47
102
}
330
47
100
AcDbScale
 70
     0
300
1:16
140
1.0
141
16.0
290
     0
  0
SCALE
  5
4F
102
{ACAD_REACTORS
330
47
102
}
330
47
100
AcDbScale
 70
     0
300
1:20
140
1.0
141
20.0
290
     0
  0
SCALE
  5
50
102
{ACAD_REACTORS
330
47
102
}
330
47
100
AcDbScale
 70
     0
300
1:30
140
1.0
141
30.0
290
     0
  0
SCALE
  5
51
102
{ACAD_REACTORS
330
47
102
}
330
47
100
AcDbScale
 70
     0
300
1:40
140
1.0
141
40.0
290
     0
  0
SCALE
  5
52
102
{ACAD_REACTORS
330
47
102
}
330
47
100
AcDbScale
 70
     0
300
1:50
140
1.0
141
50.0
290
     0
  0
SCALE
  5
53
102
{ACAD_REACTORS
330
47
102
}
330
47
100
AcDbScale
 70
     0
300
1:100
140
1.0
141
100.0
290
     0
  0
SCALE
  5
54
102
{ACAD_REACTORS
330
47
102
}
330
47
100
AcDbScale
 70
     0
300
2:1
140
2.0
141
1.0
290
     0
  0
SCALE
  5
55
102
{ACAD_REACTORS
330
47
102
}
330
47
100
AcDbScale
 70
     0
300
4:1
140
4.0
141
1.0
290
     0
  0
SCALE
  5
56
102
{ACAD_REACTORS
330
47
102
}
330
47
100
AcDbScale
 70
     0
300
8:1
140
8.0
141
1.0
290
     0
  0
SCALE
  5
57
102
{ACAD_REACTORS
330
47
102
}
330
47
100
AcDbScale
 70
     0
300
10:1
140
10.0
141
1.0
290
     0
  0
SCALE
  5
58
102
{ACAD_REACTORS
330
47
102
}
330
47
100
AcDbScale
 70
     0
300
100:1
140
100.0
141
1.0
290
     0
  0
SCALE
  5
59
102
{ACAD_REACTORS
330
47
102
}
330
47
100
AcDbScale
 70
     0
300
1/128" = 1'-0"
140
0.0078125
141
12.0
290
     0
  0
SCALE
  5
5A
102
{ACAD_REACTORS
330
47
102
}
330
47
100
AcDbScale
 70
     0
300
1/64" = 1'-0"
140
0.015625
141
12.0
290
     0
  0
SCALE
  5
5B
102
{ACAD_REACTORS
330
47
102
}
330
47
100
AcDbScale
 70
     0
300
1/32" = 1'-0"
140
0.03125
141
12.0
290
     0
  0
SCALE
  5
5C
102
{ACAD_REACTORS
330
47
102
}
330
47
100
AcDbScale
 70
     0
300
1/16" = 1'-0"
140
0.0625
141
12.0
290
     0
  0
SCALE
  5
5D
102
{ACAD_REACTORS
330
47
102
}
330
47
100
AcDbScale
 70
     0
300
3/32" = 1'-0"
140
0.09375
141
12.0
290
     0
  0
SCALE
  5
5E
102
{ACAD_REACTORS
330
47
102
}
330
47
100
AcDbScale
 70
     0
300
1/8" = 1'-0"
140
0.125
141
12.0
290
     0
  0
SCALE
  5
5F
102
{ACAD_REACTORS
330
47
102
}
330
47
100
AcDbScale
 70
     0
300
3/16" = 1'-0"
140
0.1875
141
12.0
290
     0
  0
SCALE
  5
60
102
{ACAD_REACTORS
330
47
102
}
330
47
100
AcDbScale
 70
     0
300
1/4" = 1'-0"
140
0.25
141
12.0
290
     0
  0
SCALE
  5
61
102
{ACAD_REACTORS
330
47
102
}
330
47
100
AcDbScale
 70
     0
300
3/8" = 1'-0"
140
0.375
141
12.0
290
     0
  0
SCALE
  5
62
102
{ACAD_REACTORS
330
47
102
}
330
47
100
AcDbScale
 70
     0
300
1/2" = 1'-0"
140
0.5
141
12.0
290
     0
  0
SCALE
  5
63
102
{ACAD_REACTORS
330
47
102
}
330
47
100
AcDbScale
 70
     0
300
3/4" = 1'-0"
140
0.75
141
12.0
290
     0
  0
SCALE
  5
64
102
{ACAD_REACTORS
330
47
102
}
330
47
100
AcDbScale
 70
     0
300
1" = 1'-0"
140
1.0
141
12.0
290
     0
  0
SCALE
  5
65
102
{ACAD_REACTORS
330
47
102
}
330
47
100
AcDbScale
 70
     0
300
1-1/2" = 1'-0"
140
1.5
141
12.0
290
     0
  0
SCALE
  5
66
102
{ACAD_REACTORS
330
47
102
}
330
47
100
AcDbScale
 70
     0
300
3" = 1'-0"
140
3.0
141
12.0
290
     0
  0
SCALE
  5
67
102
{ACAD_REACTORS
330
47
102
}
330
47
100
AcDbScale
 70
     0
300
6" = 1'-0"
140
6.0
141
12.0
290
     0
  0
SCALE
  5
68
102
{ACAD_REACTORS
330
47
102
}
330
47
100
AcDbScale
 70
     0
300
1'-0" = 1'-0"
140
12.0
141
12.0
290
     0
  0
ACDBSECTIONVIEWSTYLE
  5
12EA
102
{ACAD_XDICTIONARY
360
135A
102
}
102
{ACAD_REACTORS
330
25A
102
}
330
25A
100
AcDbModelDocViewStyle
 70
     0
  3
Metric50
290
     0
100
AcDbSectionViewStyle
 70
     0
 71
     0
 90
      102
 71
     1
340
11
 40
5.0
340
0
340
0
 40
5.0
300
I, O, Q, S, X, Z
 40
10.0
 90
        0
 40
2.5
 90
        0
 71
     2
340
16
 90
       25
340
16
 90
       50
 40
5.0
 40
2.5
 40
5.0
 71
     3
340
11
 40
5.0
 90
        0
 40
15.0
 90
        1
300
%<\AcVar ViewSectionStartId>%-%<\AcVar ViewSectionEndId>% (%<\AcVar ViewScale \f "%sn">%)
 71
     4
300
ANSI31
 40
1.0
 90
        0
290
     0
290
     0
 90
        6
 40
0.0
 40
1.570796326794896
 40
0.2617993877991494
 40
1.308996938995747
 40
-0.2617993877991494
 40
1.832595714594046
  0
TABLESTYLE
  5
6A
102
{ACAD_XDICTIONARY
360
1310
102
}
102
{ACAD_REACTORS
330
69
102
}
330
69
100
AcDbTableStyle
  3
Standard
 70
     0
 71
     0
 40
0.06
 41
0.06
280
     0
281
     0
  7
Standard
140
0.18
170
     2
 62
     0
 63
     7
283
     0
274
    -2
284
     1
 64
     0
275
    -2
285
     1
 65
     0
276
    -2
286
     1
 66
     0
277
    -2
287
     1
 67
     0
278
    -2
288
     1
 68
     0
279
    -2
289
     1
 69
     0
  7
Standard
140
0.25
170
     5
 62
     0
 63
     7
283
     0
274
    -2
284
     1
 64
     0
275
    -2
285
     1
 65
     0
276
    -2
286
     1
 66
     0
277
    -2
287
     1
 67
     0
278
    -2
288
     1
 68
     0
279
    -2
289
     1
 69
     0
  7
Standard
140
0.18
170
     5
 62
     0
 63
     7
283
     0
274
    -2
284
     1
 64
     0
275
    -2
285
     1
 65
     0
276
    -2
286
     1
 66
     0
277
    -2
287
     1
 67
     0
278
    -2
288
     1
 68
     0
279
    -2
289
     1
 69
     0
  0
VISUALSTYLE
  5
2F
102
{ACAD_XDICTIONARY
360
132B
102
}
102
{ACAD_REACTORS
330
2A
102
}
330
2A
100
AcDbVisualStyle
  2
2dWireframe
 70
     4
 71
     0
 72
     2
 73
     0
 90
        0
 40
-0.6
 41
-30.0
 62
     5
 63
     7
 74
     1
 91
        4
 64
     7
 65
   257
 75
     1
175
     1
 42
1.0
 92
        0
 66
     7
 43
1.0
 76
     1
 77
     6
 78
     2
 67
     7
 79
     5
170
     0
171
     0
290
     0
174
     0
 93
        1
 44
0.0
173
     0
291
     0
 45
0.0
1001
ACAD
1000
AcDbSavedByObjectVersion
1070
     0
  0
VISUALSTYLE
  5
32
102
{ACAD_XDICTIONARY
360
1331
102
}
102
{ACAD_REACTORS
330
2A
102
}
330
2A
100
AcDbVisualStyle
  2
Basic
 70
     7
 71
     1
 72
     0
 73
     1
 90
        0
 40
-0.6
 41
-30.0
 62
     5
 63
     7
 74
     0
 91
        4
 64
     7
 65
   257
 75
     1
175
     1
 42
1.0
 92
        8
 66
     7
 43
1.0
 76
     1
 77
     6
 78
     2
 67
     7
 79
     5
170
     0
171
     0
290
     0
174
     0
 93
        1
 44
0.0
173
     0
291
     1
 45
0.0
1001
ACAD
1000
AcDbSavedByObjectVersion
1070
     0
  0
VISUALSTYLE
  5
36
102
{ACAD_XDICTIONARY
360
1339
102
}
102
{ACAD_REACTORS
330
2A
102
}
330
2A
100
AcDbVisualStyle
  2
Brighten
 70
    12
 71
     2
 72
     2
 73
     0
 90
        0
 40
-0.6
 41
-30.0
 62
     5
 63
     7
 74
     1
 91
        4
 64
     7
 65
   257
 75
     1
175
     1
 42
1.0
 92
        8
 66
     7
 43
1.0
 76
     1
 77
     6
 78
     2
 67
     7
 79
     5
170
     0
171
     0
290
     0
174
     0
 93
        1
 44
50.0
173
     0
291
     1
 45
0.0
1001
ACAD
1000
AcDbSavedByObjectVersion
1070
     0
  0
VISUALSTYLE
  5
3A
102
{ACAD_XDICTIONARY
360
1341
102
}
102
{ACAD_REACTORS
330
2A
102
}
330
2A
100
AcDbVisualStyle
  2
ColorChange
 70
    16
 71
     2
 72
     2
 73
     3
 90
        0
 40
-0.6
 41
-30.0
 62
     5
 63
     7
 74
     1
 91
        4
 64
     7
 65
   257
 75
     1
175
     1
 42
1.0
 92
        8
 66
     7
 43
1.0
 76
     1
 77
     6
 78
     2
 67
     7
 79
     5
170
     0
171
     0
290
     0
174
     0
 93
        1
 44
0.0
173
     0
291
     1
 45
0.0
1001
ACAD
1000
AcDbSavedByObjectVersion
1070
     0
  0
VISUALSTYLE
  5
34
102
{ACAD_XDICTIONARY
360
1335
102
}
102
{ACAD_REACTORS
330
2A
102
}
330
2A
100
AcDbVisualStyle
  2
Conceptual
 70
     9
 71
     3
 72
     2
 73
     0
 90
        0
 40
-0.6
 41
-30.0
 62
     5
 63
     7
 74
     2
 91
        2
 64
     7
 65
   257
 75
     1
175
     1
 42
179.0
 92
        8
 66
     7
 43
1.0
 76
     1
 77
     6
 78
     2
 67
     7
 79
     3
170
     0
171
     0
290
     0
174
     0
 93
        1
 44
0.0
173
     0
291
     0
 45
0.0
1001
ACAD
1000
AcDbSavedByObjectVersion
1070
     0
  0
VISUALSTYLE
  5
35
102
{ACAD_XDICTIONARY
360
1337
102
}
102
{ACAD_REACTORS
330
2A
102
}
330
2A
100
AcDbVisualStyle
  2
Dim
 70
    11
 71
     2
 72
     2
 73
     0
 90
        0
 40
-0.6
 41
-30.0
 62
     5
 63
     7
 74
     1
 91
        4
 64
     7
 65
   257
 75
     1
175
     1
 42
1.0
 92
        8
 66
     7
 43
1.0
 76
     1
 77
     6
 78
     2
 67
     7
 79
     5
170
     0
171
     0
290
     0
174
     0
 93
        1
 44
-50.0
173
     0
291
     1
 45
0.0
1001
ACAD
1000
AcDbSavedByObjectVersion
1070
     0
  0
VISUALSTYLE
  5
3D
102
{ACAD_XDICTIONARY
360
1347
102
}
102
{ACAD_REACTORS
330
2A
102
}
330
2A
100
AcDbVisualStyle
  2
EdgeColorOff
 70
    22
 71
     2
 72
     2
 73
     0
 90
        0
 40
-0.6
 41
-30.0
 62
     5
 63
     7
 74
     1
 91
        4
 64
     7
 65
   257
 75
     1
175
     1
 42
1.0
 92
        8
 66
     7
 43
1.0
 76
     1
 77
     6
 78
     2
 67
     7
 79
     5
170
     0
171
     0
290
     0
174
     0
 93
        1
 44
0.0
173
     0
291
     1
 45
0.0
1001
ACAD
1000
AcDbSavedByObjectVersion
1070
     0
  0
VISUALSTYLE
  5
39
102
{ACAD_XDICTIONARY
360
133F
102
}
102
{ACAD_REACTORS
330
2A
102
}
330
2A
100
AcDbVisualStyle
  2
Facepattern
 70
    15
 71
     2
 72
     2
 73
     0
 90
        0
 40
-0.6
 41
-30.0
 62
     5
 63
     7
 74
     1
 91
        4
 64
     7
 65
   257
 75
     1
175
     1
 42
1.0
 92
        8
 66
     7
 43
1.0
 76
     1
 77
     6
 78
     2
 67
     7
 79
     5
170
     0
171
     0
290
     0
174
     0
 93
        1
 44
0.0
173
     0
291
     1
 45
0.0
1001
ACAD
1000
AcDbSavedByObjectVersion
1070
     0
  0
VISUALSTYLE
  5
2B
102
{ACAD_XDICTIONARY
360
1323
102
}
102
{ACAD_REACTORS
330
2A
102
}
330
2A
100
AcDbVisualStyle
  2
Flat
 70
     0
 71
     2
 72
     1
 73
     1
 90
        2
 40
-0.6
 41
30.0
 62
     5
 63
     7
 74
     0
 91
        0
 64
     7
 65
   257
 75
     1
175
     1
 42
1.0
 92
        8
 66
     7
 43
1.0
 76
     1
 77
     6
 78
     2
 67
     7
 79
     5
170
     0
171
     0
290
     0
174
     0
 93
       13
 44
0.0
173
     0
291
     1
 45
0.0
1001
ACAD
1000
AcDbSavedByObjectVersion
1070
     0
  0
VISUALSTYLE
  5
2C
102
{ACAD_XDICTIONARY
360
1325
102
}
102
{ACAD_REACTORS
330
2A
102
}
330
2A
100
AcDbVisualStyle
  2
FlatWithEdges
 70
     1
 71
     2
 72
     1
 73
     1
 90
        2
 40
-0.6
 41
30.0
 62
     5
 63
     7
 74
     1
 91
        0
 64
     7
 65
   257
 75
     1
175
     1
 42
1.0
 92
        0
 66
     7
 43
1.0
 76
     1
 77
     6
 78
     2
 67
     7
 79
     5
170
     0
171
     0
290
     0
174
     0
 93
       13
 44
0.0
173
     0
291
     1
 45
0.0
1001
ACAD
1000
AcDbSavedByObjectVersion
1070
     0
  0
VISUALSTYLE
  5
2D
102
{ACAD_XDICTIONARY
360
1327
102
}
102
{ACAD_REACTORS
330
2A
102
}
330
2A
100
AcDbVisualStyle
  2
Gouraud
 70
     2
 71
     2
 72
     2
 73
     1
 90
        2
 40
-0.6
 41
30.0
 62
     5
 63
     7
 74
     0
 91
        0
 64
     7
 65
   257
 75
     1
175
     1
 42
1.0
 92
        0
 66
     7
 43
1.0
 76
     1
 77
     6
 78
     2
 67
     7
 79
     5
170
     0
171
     0
290
     0
174
     0
 93
       13
 44
0.0
173
     0
291
     1
 45
0.0
1001
ACAD
1000
AcDbSavedByObjectVersion
1070
     0
  0
VISUALSTYLE
  5
2E
102
{ACAD_XDICTIONARY
360
1329
102
}
102
{ACAD_REACTORS
330
2A
102
}
330
2A
100
AcDbVisualStyle
  2
GouraudWithEdges
 70
     3
 71
     2
 72
     2
 73
     1
 90
        2
 40
-0.6
 41
30.0
 62
     5
 63
     7
 74
     1
 91
        0
 64
     7
 65
   257
 75
     1
175
     1
 42
1.0
 92
        0
 66
     7
 43
1.0
 76
     1
 77
     6
 78
     2
 67
     7
 79
     5
170
     0
171
     0
290
     0
174
     0
 93
       13
 44
0.0
173
     0
291
     1
 45
0.0
1001
ACAD
1000
AcDbSavedByObjectVersion
1070
     0
  0
VISUALSTYLE
  5
31
102
{ACAD_XDICTIONARY
360
132F
102
}
102
{ACAD_REACTORS
330
2A
102
}
330
2A
100
AcDbVisualStyle
  2
Hidden
 70
     6
 71
     1
 72
     2
 73
     2
 90
        0
 40
-0.6
 41
-30.0
 62
     5
 63
     7
 74
     2
 91
        2
 64
     7
 65
   257
 75
     2
175
     1
 42
40.0
 92
        0
 66
     7
 43
1.0
 76
     1
 77
     6
 78
     2
 67
     7
 79
     3
170
     0
171
     0
290
     0
174
     0
 93
        1
 44
0.0
173
     0
291
     0
 45
0.0
1001
ACAD
1000
AcDbSavedByObjectVersion
1070
     0
  0
VISUALSTYLE
  5
3B
102
{ACAD_XDICTIONARY
360
1343
102
}
102
{ACAD_REACTORS
330
2A
102
}
330
2A
100
AcDbVisualStyle
  2
JitterOff
 70
    20
 71
     2
 72
     2
 73
     0
 90
        0
 40
-0.6
 41
-30.0
 62
     5
 63
     7
 74
     1
 91
        4
 64
     7
 65
   257
 75
     1
175
     1
 42
1.0
 92
       10
 66
     7
 43
1.0
 76
     1
 77
     6
 78
     2
 67
     7
 79
     5
170
     0
171
     0
290
     0
174
     0
 93
        1
 44
0.0
173
     0
291
     1
 45
0.0
1001
ACAD
1000
AcDbSavedByObjectVersion
1070
     0
  0
VISUALSTYLE
  5
38
102
{ACAD_XDICTIONARY
360
133D
102
}
102
{ACAD_REACTORS
330
2A
102
}
330
2A
100
AcDbVisualStyle
  2
Linepattern
 70
    14
 71
     2
 72
     2
 73
     0
 90
        0
 40
-0.6
 41
-30.0
 62
     5
 63
     7
 74
     1
 91
        4
 64
     7
 65
   257
 75
     7
175
     7
 42
1.0
 92
        8
 66
     7
 43
1.0
 76
     1
 77
     6
 78
     2
 67
     7
 79
     5
170
     0
171
     0
290
     0
174
     0
 93
        1
 44
0.0
173
     0
291
     1
 45
0.0
1001
ACAD
1000
AcDbSavedByObjectVersion
1070
     0
  0
VISUALSTYLE
  5
3C
102
{ACAD_XDICTIONARY
360
1345
102
}
102
{ACAD_REACTORS
330
2A
102
}
330
2A
100
AcDbVisualStyle
  2
OverhangOff
 70
    21
 71
     2
 72
     2
 73
     0
 90
        0
 40
-0.6
 41
-30.0
 62
     5
 63
     7
 74
     1
 91
        4
 64
     7
 65
   257
 75
     1
175
     1
 42
1.0
 92
        9
 66
     7
 43
1.0
 76
     1
 77
     6
 78
     2
 67
     7
 79
     5
170
     0
171
     0
290
     0
174
     0
 93
        1
 44
0.0
173
     0
291
     1
 45
0.0
1001
ACAD
1000
AcDbSavedByObjectVersion
1070
     0
  0
VISUALSTYLE
  5
33
102
{ACAD_XDICTIONARY
360
1333
102
}
102
{ACAD_REACTORS
330
2A
102
}
330
2A
100
AcDbVisualStyle
  2
Realistic
 70
     8
 71
     2
 72
     3
 73
     0
 90
        2
 40
-0.6
 41
30.0
 62
     5
 63
     7
 74
     0
 91
        0
 64
     7
 65
   257
 75
     1
175
     1
 42
1.0
 92
        8
 66
     7
 43
1.0
 76
     1
 77
     6
 78
     2
 67
     7
 79
     3
170
     0
171
     0
290
     0
174
     0
 93
       13
 44
0.0
173
     0
291
     0
 45
0.0
1001
ACAD
1000
AcDbSavedByObjectVersion
1070
     0
  0
VISUALSTYLE
  5
42
102
{ACAD_XDICTIONARY
360
1351
102
}
102
{ACAD_REACTORS
330
2A
102
}
330
2A
100
AcDbVisualStyle
  2
Shaded
 70
    27
 71
     2
 72
     2
 73
     1
 90
        2
 40
-0.6
 41
30.0
 62
     5
 63
     7
 74
     0
 91
        4
 64
     7
 65
   257
 75
     1
175
     1
 42
1.0
 92
        8
 66
     7
 43
1.0
 76
     1
 77
     6
 78
     2
 67
     7
 79
     3
170
     0
171
     0
290
     0
174
     0
 93
        5
 44
0.0
173
     0
291
     0
 45
0.0
1001
ACAD
1000
AcDbSavedByObjectVersion
1070
     0
  0
VISUALSTYLE
  5
41
102
{ACAD_XDICTIONARY
360
134F
102
}
102
{ACAD_REACTORS
330
2A
102
}
330
2A
100
AcDbVisualStyle
  2
Shaded with edges
 70
    26
 71
     2
 72
     2
 73
     1
 90
        2
 40
-0.6
 41
30.0
 62
     5
 63
     7
 74
     1
 91
        2
 64
     7
 65
   257
 75
     2
175
     1
 42
1.0
 92
        8
 66
     7
 43
1.0
 76
     1
 77
     6
 78
     2
 67
     7
 79
     3
170
     0
171
     0
290
     0
174
     0
 93
        5
 44
0.0
173
     0
291
     0
 45
0.0
1001
ACAD
1000
AcDbSavedByObjectVersion
1070
     0
  0
VISUALSTYLE
  5
3E
102
{ACAD_XDICTIONARY
360
1349
102
}
102
{ACAD_REACTORS
330
2A
102
}
330
2A
100
AcDbVisualStyle
  2
Shades of Gray
 70
    23
 71
     2
 72
     2
 73
     3
 90
        0
 40
-0.6
 41
-30.0
 62
     5
 63
     7
 74
     2
 91
        2
 64
     7
 65
   257
 75
     1
175
     1
 42
40.0
 92
        8
 66
     7
 43
1.0
 76
     1
 77
     6
 78
     2
 67
     7
 79
     3
170
     0
171
     0
290
     0
174
     0
 93
        1
 44
0.0
173
     0
291
     0
 45
0.0
1001
ACAD
1000
AcDbSavedByObjectVersion
1070
     0
  0
VISUALSTYLE
  5
3F
102
{ACAD_XDICTIONARY
360
134B
102
}
102
{ACAD_REACTORS
330
2A
102
}
330
2A
100
AcDbVisualStyle
  2
Sketchy
 70
    24
 71
     1
 72
     2
 73
     2
 90
        0
 40
-0.6
 41
-30.0
 62
     5
 63
     7
 74
     2
 91
        2
 64
     7
 65
   257
 75
     1
175
     1
 42
40.0
 92
       11
 66
     7
 43
1.0
 76
     1
 77
     6
 78
     2
 67
     7
 79
     6
170
     0
171
     0
290
     0
174
     0
 93
        1
 44
0.0
173
     0
291
     0
 45
0.0
1001
ACAD
1000
AcDbSavedByObjectVersion
1070
     0
  0
VISUALSTYLE
  5
37
102
{ACAD_XDICTIONARY
360
133B
102
}
102
{ACAD_REACTORS
330
2A
102
}
330
2A
100
AcDbVisualStyle
  2
Thicken
 70
    13
 71
     2
 72
     2
 73
     0
 90
        0
 40
-0.6
 41
-30.0
 62
     5
 63
     7
 74
     1
 91
        4
 64
     7
 65
   257
 75
     1
175
     1
 42
1.0
 92
       12
 66
     7
 43
1.0
 76
     1
 77
     6
 78
     2
 67
     7
 79
     5
170
     0
171
     0
290
     0
174
     0
 93
        1
 44
0.0
173
     0
291
     1
 45
0.0
1001
ACAD
1000
AcDbSavedByObjectVersion
1070
     0
  0
VISUALSTYLE
  5
30
102
{ACAD_XDICTIONARY
360
132D
102
}
102
{ACAD_REACTORS
330
2A
102
}
330
2A
100
AcDbVisualStyle
  2
Wireframe
 70
     5
 71
     0
 72
     2
 73
     0
 90
        0
 40
-0.6
 41
-30.0
 62
     5
 63
     7
 74
     1
 91
        4
 64
     7
 65
   257
 75
     1
175
     1
 42
1.0
 92
        0
 66
     7
 43
1.0
 76
     1
 77
     6
 78
     2
 67
     7
 79
     3
170
     0
171
     0
290
     0
174
     0
 93
        1
 44
0.0
173
     0
291
     0
 45
0.0
1001
ACAD
1000
AcDbSavedByObjectVersion
1070
     0
  0
VISUALSTYLE
  5
40
102
{ACAD_XDICTIONARY
360
134D
102
}
102
{ACAD_REACTORS
330
2A
102
}
330
2A
100
AcDbVisualStyle
  2
X-Ray
 70
    25
 71
     2
 72
     2
 73
     1
 90
        1
 40
0.5
 41
-30.0
 62
     5
 63
     7
 74
     1
 91
        0
 64
     7
 65
   257
 75
     1
175
     1
 42
1.0
 92
        8
 66
     7
 43
1.0
 76
     1
 77
     6
 78
     2
 67
     7
 79
     3
170
     0
171
     0
290
     0
174
     0
 93
       13
 44
0.0
173
     0
291
     0
 45
0.0
1001
ACAD
1000
AcDbSavedByObjectVersion
1070
     0
  0
DICTIONARYVAR
  5
12B8
102
{ACAD_REACTORS
330
216
102
}
330
216
100
DictionaryVariables
280
     0
  1
1:1
  0
DICTIONARYVAR
  5
258
102
{ACAD_REACTORS
330
216
102
}
330
216
100
DictionaryVariables
280
     0
  1
STANDARD
  0
DICTIONARYVAR
  5
257
102
{ACAD_REACTORS
330
216
102
}
330
216
100
DictionaryVariables
280
     0
  1
STANDARD
  0
DICTIONARYVAR
  5
1305
102
{ACAD_REACTORS
330
216
102
}
330
216
100
DictionaryVariables
280
     0
  1
Metric50
  0
DICTIONARYVAR
  5
1306
102
{ACAD_REACTORS
330
216
102
}
330
216
100
DictionaryVariables
280
     0
  1
Metric50
  0
DICTIONARYVAR
  5
1233
102
{ACAD_REACTORS
330
216
102
}
330
216
100
DictionaryVariables
280
     0
  1
2
  0
DICTIONARYVAR
  5
1232
102
{ACAD_REACTORS
330
216
102
}
330
216
100
DictionaryVariables
280
     0
  1
1
  0
DICTIONARYVAR
  5
130B
102
{ACAD_REACTORS
330
216
102
}
330
216
100
DictionaryVariables
280
     0
  1
0
  0
DICTIONARYVAR
  5
130D
102
{ACAD_REACTORS
330
216
102
}
330
216
100
DictionaryVariables
280
     0
  1
0.000000
  0
DICTIONARYVAR
  5
1308
102
{ACAD_REACTORS
330
216
102
}
330
216
100
DictionaryVariables
280
     0
  1
0
  0
DICTIONARYVAR
  5
1309
102
{ACAD_REACTORS
330
216
102
}
330
216
100
DictionaryVariables
280
     0
  1
0
  0
DICTIONARYVAR
  5
1307
102
{ACAD_REACTORS
330
216
102
}
330
216
100
DictionaryVariables
280
     0
  1
2
  0
DICTIONARYVAR
  5
130E
102
{ACAD_REACTORS
330
216
102
}
330
216
100
DictionaryVariables
280
     0
  1
0.000000
  0
DICTIONARYVAR
  5
218
102
{ACAD_REACTORS
330
216
102
}
330
216
100
DictionaryVariables
280
     0
  1
1
  0
DICTIONARYVAR
  5
1234
102
{ACAD_REACTORS
330
216
102
}
330
216
100
DictionaryVariables
280
     0
  1

  0
DICTIONARYVAR
  5
130C
102
{ACAD_REACTORS
330
216
102
}
330
216
100
DictionaryVariables
280
     0
  1
1
  0
DICTIONARYVAR
  5
130A
102
{ACAD_REACTORS
330
216
102
}
330
216
100
DictionaryVariables
280
     0
  1
127
  0
DICTIONARYVAR
  5
130F
102
{ACAD_REACTORS
330
216
102
}
330
216
100
DictionaryVariables
280
     0
  1
2
  0
DICTIONARY
  5
131C
102
{ACAD_REACTORS
330
131A
102
}
330
131A
100
AcDbDictionary
281
     1
  0
DICTIONARY
  5
131B
102
{ACAD_REACTORS
330
131A
102
}
330
131A
100
AcDbDictionary
281
     1
  3
1341334113600
350
1314
  3
1341334113616
350
1315
  3
1341334113632
350
1316
  3
1341334113648
350
1317
  3
1341334113664
350
1318
  3
1341334113680
350
1319
  0
DICTIONARY
  5
135C
330
12EB
100
AcDbDictionary
280
     1
281
     1
  3
ACAD_XREC_ROUNDTRIP
360
135D
  0
DICTIONARY
  5
131D
330
1E
100
AcDbDictionary
280
     1
281
     1
  3
ACAD_XREC_ROUNDTRIP
360
131E
  0
DICTIONARY
  5
1321
330
26
100
AcDbDictionary
280
     1
281
     1
  3
ACAD_XREC_ROUNDTRIP
360
1322
  0
DICTIONARY
  5
131F
330
22
100
AcDbDictionary
280
     1
281
     1
  3
ACAD_XREC_ROUNDTRIP
360
1320
  0
DICTIONARY
  5
1355
330
45
100
AcDbDictionary
280
     1
281
     1
  3
ACAD_XREC_ROUNDTRIP
360
1356
  0
DICTIONARY
  5
1353
330
44
100
AcDbDictionary
280
     1
281
     1
  3
ACAD_XREC_ROUNDTRIP
360
1354
  0
DICTIONARY
  5
1357
330
46
100
AcDbDictionary
280
     1
281
     1
  3
ACAD_XREC_ROUNDTRIP
360
1358
  0
DICTIONARY
  5
135A
330
12EA
100
AcDbDictionary
280
     1
281
     1
  3
ACAD_XREC_ROUNDTRIP
360
135B
  0
DICTIONARY
  5
1310
330
6A
100
AcDbDictionary
280
     1
281
     1
  3
ACAD_ROUNDTRIP_2008_TABLESTYLE_CELLSTYLEMAP
360
1311
  3
ACAD_XREC_ROUNDTRIP
360
1359
  0
DICTIONARY
  5
132B
330
2F
100
AcDbDictionary
280
     1
281
     1
  3
ACAD_XREC_ROUNDTRIP
360
132C
  0
DICTIONARY
  5
1331
330
32
100
AcDbDictionary
280
     1
281
     1
  3
ACAD_XREC_ROUNDTRIP
360
1332
  0
DICTIONARY
  5
1339
330
36
100
AcDbDictionary
280
     1
281
     1
  3
ACAD_XREC_ROUNDTRIP
360
133A
  0
DICTIONARY
  5
1341
330
3A
100
AcDbDictionary
280
     1
281
     1
  3
ACAD_XREC_ROUNDTRIP
360
1342
  0
DICTIONARY
  5
1335
330
34
100
AcDbDictionary
280
     1
281
     1
  3
ACAD_XREC_ROUNDTRIP
360
1336
  0
DICTIONARY
  5
1337
330
35
100
AcDbDictionary
280
     1
281
     1
  3
ACAD_XREC_ROUNDTRIP
360
1338
  0
DICTIONARY
  5
1347
330
3D
100
AcDbDictionary
280
     1
281
     1
  3
ACAD_XREC_ROUNDTRIP
360
1348
  0
DICTIONARY
  5
133F
330
39
100
AcDbDictionary
280
     1
281
     1
  3
ACAD_XREC_ROUNDTRIP
360
1340
  0
DICTIONARY
  5
1323
330
2B
100
AcDbDictionary
280
     1
281
     1
  3
ACAD_XREC_ROUNDTRIP
360
1324
  0
DICTIONARY
  5
1325
330
2C
100
AcDbDictionary
280
     1
281
     1
  3
ACAD_XREC_ROUNDTRIP
360
1326
  0
DICTIONARY
  5
1327
330
2D
100
AcDbDictionary
280
     1
281
     1
  3
ACAD_XREC_ROUNDTRIP
360
1328
  0
DICTIONARY
  5
1329
330
2E
100
AcDbDictionary
280
     1
281
     1
  3
ACAD_XREC_ROUNDTRIP
360
132A
  0
DICTIONARY
  5
132F
330
31
100
AcDbDictionary
280
     1
281
     1
  3
ACAD_XREC_ROUNDTRIP
360
1330
  0
DICTIONARY
  5
1343
330
3B
100
AcDbDictionary
280
     1
281
     1
  3
ACAD_XREC_ROUNDTRIP
360
1344
  0
DICTIONARY
  5
133D
330
38
100
AcDbDictionary
280
     1
281
     1
  3
ACAD_XREC_ROUNDTRIP
360
133E
  0
DICTIONARY
  5
1345
330
3C
100
AcDbDictionary
280
     1
281
     1
  3
ACAD_XREC_ROUNDTRIP
360
1346
  0
DICTIONARY
  5
1333
330
33
100
AcDbDictionary
280
     1
281
     1
  3
ACAD_XREC_ROUNDTRIP
360
1334
  0
DICTIONARY
  5
1351
330
42
100
AcDbDictionary
280
     1
281
     1
  3
ACAD_XREC_ROUNDTRIP
360
1352
  0
DICTIONARY
  5
134F
330
41
100
AcDbDictionary
280
     1
281
     1
  3
ACAD_XREC_ROUNDTRIP
360
1350
  0
DICTIONARY
  5
1349
330
3E
100
AcDbDictionary
280
     1
281
     1
  3
ACAD_XREC_ROUNDTRIP
360
134A
  0
DICTIONARY
  5
134B
330
3F
100
AcDbDictionary
280
     1
281
     1
  3
ACAD_XREC_ROUNDTRIP
360
134C
  0
DICTIONARY
  5
133B
330
37
100
AcDbDictionary
280
     1
281
     1
  3
ACAD_XREC_ROUNDTRIP
360
133C
  0
DICTIONARY
  5
132D
330
30
100
AcDbDictionary
280
     1
281
     1
  3
ACAD_XREC_ROUNDTRIP
360
132E
  0
DICTIONARY
  5
134D
330
40
100
AcDbDictionary
280
     1
281
     1
  3
ACAD_XREC_ROUNDTRIP
360
134E
  0
XRECORD
  5
1314
102
{ACAD_REACTORS
330
131B
102
}
330
131B
100
AcDbXrecord
280
     1
  1
AcDb3DSolid_ASM_Data
102
{ATTRRECORD
341
1315
  2
AcDbDs::TreatedAsObjectData
280
     1
291
     1
102
ATTRRECORD}
102
{ATTRRECORD
341
1316
  2
AcDbDs::Legacy
280
     1
291
     1
102
ATTRRECORD}
  2
AcDbDs::ID
280
    10
 91
        8
102
{ATTRRECORD
341
1317
  2
AcDs:Indexable
280
     1
291
     1
102
ATTRRECORD}
102
{ATTRRECORD
341
1318
  2
AcDbDs::HandleAttribute
280
     7
282
     1
102
ATTRRECORD}
  2
ASM_Data
280
    15
 91
        0
  0
XRECORD
  5
1315
102
{ACAD_REACTORS
330
131B
102
}
330
131B
100
AcDbXrecord
280
     1
  1
AcDbDs::TreatedAsObjectDataSchema
  2
AcDbDs::TreatedAsObjectData
280
     1
 91
        0
  0
XRECORD
  5
1316
102
{ACAD_REACTORS
330
131B
102
}
330
131B
100
AcDbXrecord
280
     1
  1
AcDbDs::LegacySchema
  2
AcDbDs::Legacy
280
     1
 91
        0
  0
XRECORD
  5
1317
102
{ACAD_REACTORS
330
131B
102
}
330
131B
100
AcDbXrecord
280
     1
  1
AcDbDs::IndexedPropertySchema
  2
AcDs:Indexable
280
     1
 91
        0
  0
XRECORD
  5
1318
102
{ACAD_REACTORS
330
131B
102
}
330
131B
100
AcDbXrecord
280
     1
  1
AcDbDs::HandleAttributeSchema
  2
AcDbDs::HandleAttribute
280
     7
 91
        1
284
     1
  0
XRECORD
  5
1319
102
{ACAD_REACTORS
330
131B
102
}
330
131B
100
AcDbXrecord
280
     1
  1
AcDb_Thumbnail_Schema
102
{ATTRRECORD
341
1315
  2
AcDbDs::TreatedAsObjectData
280
     1
291
     1
102
ATTRRECORD}
102
{ATTRRECORD
341
1316
  2
AcDbDs::Legacy
280
     1
291
     1
102
ATTRRECORD}
  2
AcDbDs::ID
280
    10
 91
        8
102
{ATTRRECORD
341
1317
  2
AcDs:Indexable
280
     1
291
     1
102
ATTRRECORD}
102
{ATTRRECORD
341
1318
  2
AcDbDs::HandleAttribute
280
     7
282
     1
102
ATTRRECORD}
  2
Thumbnail_Data
280
    15
 91
        0
  0
XRECORD
  5
135D
102
{ACAD_REACTORS
330
135C
102
}
330
135C
100
AcDbXrecord
280
     1
102
DISPLAYNAME
  1
Metric50
102
FLAGS
 90
        0
  0
XRECORD
  5
131E
102
{ACAD_REACTORS
330
131D
102
}
330
131D
100
AcDbXrecord
280
     1
102
SHADEPLOT
 70
     0
102
SHADEPLOTRESLEVEL
 70
     2
102
SHADEPLOTCUSTOMDPI
 70
   300
  0
XRECORD
  5
1322
102
{ACAD_REACTORS
330
1321
102
}
330
1321
100
AcDbXrecord
280
     1
102
SHADEPLOT
 70
     0
102
SHADEPLOTRESLEVEL
 70
     2
102
SHADEPLOTCUSTOMDPI
 70
   300
  0
XRECORD
  5
1320
102
{ACAD_REACTORS
330
131F
102
}
330
131F
100
AcDbXrecord
280
     1
102
SHADEPLOT
 70
     0
102
SHADEPLOTRESLEVEL
 70
     2
102
SHADEPLOTCUSTOMDPI
 70
   300
  0
XRECORD
  5
1356
102
{ACAD_REACTORS
330
1355
102
}
330
1355
100
AcDbXrecord
280
     1
102
MATERIAL
148
0.0
149
0.0
149
0.0
 93
        0
 94
      127
282
     0
 72
     0
 77
     0
171
     0
175
     0
179
     0
273
     0
  0
XRECORD
  5
1354
102
{ACAD_REACTORS
330
1353
102
}
330
1353
100
AcDbXrecord
280
     1
102
MATERIAL
148
0.0
149
0.0
149
0.0
 93
        0
 94
      127
282
     0
 72
     0
 77
     0
171
     0
175
     0
179
     0
273
     0
  0
XRECORD
  5
1358
102
{ACAD_REACTORS
330
1357
102
}
330
1357
100
AcDbXrecord
280
     1
102
MATERIAL
148
0.0
149
0.0
149
0.0
 93
        0
 94
      127
282
     0
 72
     0
 77
     0
171
     0
175
     0
179
     0
273
     0
  0
XRECORD
  5
135B
102
{ACAD_REACTORS
330
135A
102
}
330
135A
100
AcDbXrecord
280
     1
102
DISPLAYNAME
  1
Metric50
102
FLAGS
 90
        0
  0
CELLSTYLEMAP
  5
1311
102
{ACAD_REACTORS
330
1310
102
}
330
1310
100
AcDbCellStyleMap
 90
        3
300
CELLSTYLE
  1
TABLEFORMAT_BEGIN
 90
        5
170
     1
 91
        0
 92
    32768
 62
   257
 93
        1
300
CONTENTFORMAT
  1
CONTENTFORMAT_BEGIN
 90
        0
 91
        0
 92
        4
 93
        0
300

 40
0.0
140
1.0
 94
        5
 62
     0
340
11
144
0.25
309
CONTENTFORMAT_END
171
     1
301
MARGIN
  1
CELLMARGIN_BEGIN
 40
0.06
 40
0.06
 40
0.06
 40
0.06
 40
0.18
 40
0.18
309
CELLMARGIN_END
 94
        6
 95
        1
302
GRIDFORMAT
  1
GRIDFORMAT_BEGIN
 90
        0
 91
        1
 62
     0
 92
       -2
340
0
 93
        0
 40
0.045
309
GRIDFORMAT_END
 95
        2
302
GRIDFORMAT
  1
GRIDFORMAT_BEGIN
 90
        0
 91
        1
 62
     0
 92
       -2
340
0
 93
        0
 40
0.045
309
GRIDFORMAT_END
 95
        4
302
GRIDFORMAT
  1
GRIDFORMAT_BEGIN
 90
        0
 91
        1
 62
     0
 92
       -2
340
0
 93
        0
 40
0.045
309
GRIDFORMAT_END
 95
        8
302
GRIDFORMAT
  1
GRIDFORMAT_BEGIN
 90
        0
 91
        1
 62
     0
 92
       -2
340
0
 93
        0
 40
0.045
309
GRIDFORMAT_END
 95
       16
302
GRIDFORMAT
  1
GRIDFORMAT_BEGIN
 90
        0
 91
        1
 62
     0
 92
       -2
340
0
 93
        0
 40
0.045
309
GRIDFORMAT_END
 95
       32
302
GRIDFORMAT
  1
GRIDFORMAT_BEGIN
 90
        0
 91
        1
 62
     0
 92
       -2
340
0
 93
        0
 40
0.045
309
GRIDFORMAT_END
309
TABLEFORMAT_END
  1
CELLSTYLE_BEGIN
 90
        1
 91
        1
300
_TITLE
309
CELLSTYLE_END
300
CELLSTYLE
  1
TABLEFORMAT_BEGIN
 90
        5
170
     1
 91
        0
 92
        0
 62
   257
 93
        1
300
CONTENTFORMAT
  1
CONTENTFORMAT_BEGIN
 90
        0
 91
        0
 92
        4
 93
        0
300

 40
0.0
140
1.0
 94
        5
 62
     0
340
11
144
0.18
309
CONTENTFORMAT_END
171
     1
301
MARGIN
  1
CELLMARGIN_BEGIN
 40
0.06
 40
0.06
 40
0.06
 40
0.06
 40
0.18
 40
0.18
309
CELLMARGIN_END
 94
        6
 95
        1
302
GRIDFORMAT
  1
GRIDFORMAT_BEGIN
 90
        0
 91
        1
 62
     0
 92
       -2
340
0
 93
        0
 40
0.045
309
GRIDFORMAT_END
 95
        2
302
GRIDFORMAT
  1
GRIDFORMAT_BEGIN
 90
        0
 91
        1
 62
     0
 92
       -2
340
0
 93
        0
 40
0.045
309
GRIDFORMAT_END
 95
        4
302
GRIDFORMAT
  1
GRIDFORMAT_BEGIN
 90
        0
 91
        1
 62
     0
 92
       -2
340
0
 93
        0
 40
0.045
309
GRIDFORMAT_END
 95
        8
302
GRIDFORMAT
  1
GRIDFORMAT_BEGIN
 90
        0
 91
        1
 62
     0
 92
       -2
340
0
 93
        0
 40
0.045
309
GRIDFORMAT_END
 95
       16
302
GRIDFORMAT
  1
GRIDFORMAT_BEGIN
 90
        0
 91
        1
 62
     0
 92
       -2
340
0
 93
        0
 40
0.045
309
GRIDFORMAT_END
 95
       32
302
GRIDFORMAT
  1
GRIDFORMAT_BEGIN
 90
        0
 91
        1
 62
     0
 92
       -2
340
0
 93
        0
 40
0.045
309
GRIDFORMAT_END
309
TABLEFORMAT_END
  1
CELLSTYLE_BEGIN
 90
        2
 91
        1
300
_HEADER
309
CELLSTYLE_END
300
CELLSTYLE
  1
TABLEFORMAT_BEGIN
 90
        5
170
     1
 91
        0
 92
        0
 62
   257
 93
        1
300
CONTENTFORMAT
  1
CONTENTFORMAT_BEGIN
 90
        0
 91
        0
 92
        4
 93
        0
300

 40
0.0
140
1.0
 94
        2
 62
     0
340
11
144
0.18
309
CONTENTFORMAT_END
171
     1
301
MARGIN
  1
CELLMARGIN_BEGIN
 40
0.06
 40
0.06
 40
0.06
 40
0.06
 40
0.18
 40
0.18
309
CELLMARGIN_END
 94
        6
 95
        1
302
GRIDFORMAT
  1
GRIDFORMAT_BEGIN
 90
        0
 91
        1
 62
     0
 92
       -2
340
0
 93
        0
 40
0.045
309
GRIDFORMAT_END
 95
        2
302
GRIDFORMAT
  1
GRIDFORMAT_BEGIN
 90
        0
 91
        1
 62
     0
 92
       -2
340
0
 93
        0
 40
0.045
309
GRIDFORMAT_END
 95
        4
302
GRIDFORMAT
  1
GRIDFORMAT_BEGIN
 90
        0
 91
        1
 62
     0
 92
       -2
340
0
 93
        0
 40
0.045
309
GRIDFORMAT_END
 95
        8
302
GRIDFORMAT
  1
GRIDFORMAT_BEGIN
 90
        0
 91
        1
 62
     0
 92
       -2
340
0
 93
        0
 40
0.045
309
GRIDFORMAT_END
 95
       16
302
GRIDFORMAT
  1
GRIDFORMAT_BEGIN
 90
        0
 91
        1
 62
     0
 92
       -2
340
0
 93
        0
 40
0.045
309
GRIDFORMAT_END
 95
       32
302
GRIDFORMAT
  1
GRIDFORMAT_BEGIN
 90
        0
 91
        1
 62
     0
 92
       -2
340
0
 93
        0
 40
0.045
309
GRIDFORMAT_END
309
TABLEFORMAT_END
  1
CELLSTYLE_BEGIN
 90
        3
 91
        2
300
_DATA
309
CELLSTYLE_END
  0
XRECORD
  5
1359
102
{ACAD_REACTORS
330
1310
102
}
330
1310
100
AcDbXrecord
280
     1
102
ACAD_ROUNDTRIP_PRE2007_TABLESTYLE
 90
        4
 91
        0
  1

 92
        4
 93
        0
  2

 94
        4
 95
        0
  3

  0
XRECORD
  5
132C
102
{ACAD_REACTORS
330
132B
102
}
330
132B
100
AcDbXrecord
280
     1
102
RTVSPost2010Prop28
280
     1
102
RTVSPost2010PropOp28
 70
     1
102
RTVSPost2010Prop29
280
     1
102
RTVSPost2010PropOp29
 70
     1
102
RTVSPost2010Prop30
280
     0
102
RTVSPost2010PropOp30
 70
     1
102
RTVSPost2010Prop31
280
     0
102
RTVSPost2010PropOp31
 70
     1
102
RTVSPost2010Prop32
280
     0
102
RTVSPost2010PropOp32
 70
     1
102
RTVSPost2010Prop33
280
     0
102
RTVSPost2010PropOp33
 70
     1
102
RTVSPost2010Prop34
280
     0
102
RTVSPost2010PropOp34
 70
     1
102
RTVSPost2010Prop35
280
     0
102
RTVSPost2010PropOp35
 70
     1
102
RTVSPost2010Prop36
280
     0
102
RTVSPost2010PropOp36
 70
     1
102
RTVSPost2010Prop37
 90
       50
102
RTVSPost2010PropOp37
 70
     1
102
RTVSPost2010Prop38
140
0.0
102
RTVSPost2010PropOp38
 70
     1
102
RTVSPost2010Prop39
140
1.0
102
RTVSPost2010PropOp39
 70
     1
102
RTVSPost2010Prop40
 90
        0
102
RTVSPost2010PropOp40
 70
     1
102
RTVSPost2010Prop41ColorIndex
 90
       18
102
RTVSPost2010Prop41ColorRGB
 90
        0
102
RTVSPost2010PropOp41
 70
     1
102
RTVSPost2010Prop42
 90
       50
102
RTVSPost2010PropOp42
 70
     1
102
RTVSPost2010Prop43
 90
        3
102
RTVSPost2010PropOp43
 70
     1
102
RTVSPost2010Prop44ColorIndex
 90
        5
102
RTVSPost2010Prop44ColorRGB
 90
      255
102
RTVSPost2010PropOp44
 70
     1
102
RTVSPost2010Prop45
280
     0
102
RTVSPost2010PropOp45
 70
     1
102
RTVSPost2010Prop46
 90
       50
102
RTVSPost2010PropOp46
 70
     1
102
RTVSPost2010Prop47
 90
       50
102
RTVSPost2010PropOp47
 70
     1
102
RTVSPost2010Prop48
 90
       50
102
RTVSPost2010PropOp48
 70
     1
102
RTVSPost2010Prop49
280
     0
102
RTVSPost2010PropOp49
 70
     1
102
RTVSPost2010Prop50
 90
       50
102
RTVSPost2010PropOp50
 70
     1
102
RTVSPost2010Prop51ColorIndex
 90
      256
102
RTVSPost2010Prop51ColorRGB
 90
-16777216
102
RTVSPost2010PropOp51
 70
     0
102
RTVSPost2010Prop52
140
1.0
102
RTVSPost2010PropOp52
 70
     0
102
RTVSPost2010Prop53
 90
        0
102
RTVSPost2010PropOp53
 70
     1
102
RTVSPost2010Prop54
  1
strokes_ogs.tif
102
RTVSPost2010PropOp54
 70
     1
102
RTVSPost2010Prop55
280
     0
102
RTVSPost2010PropOp55
 70
     1
102
RTVSPost2010Prop56
140
1.0
102
RTVSPost2010PropOp56
 70
     1
102
RTVSPost2010Prop57
140
1.0
102
RTVSPost2010PropOp57
 70
     1
102
RTVSPropertyOp0
 70
     1
102
RTVSPropertyOp1
 70
     1
102
RTVSPropertyOp2
 70
     1
102
RTVSPropertyOp3
 70
     1
102
RTVSPropertyOp4
 70
     1
102
RTVSPropertyOp5
 70
     1
102
RTVSPropertyOp6
 70
     1
102
RTVSPropertyOp7
 70
     1
102
RTVSPropertyOp8
 70
     1
102
RTVSPropertyOp9
 70
     1
102
RTVSPropertyOp10
 70
     1
102
RTVSPropertyOp11
 70
     1
102
RTVSPropertyOp12
 70
     1
102
RTVSPropertyOp13
 70
     1
102
RTVSPropertyOp14
 70
     1
102
RTVSPropertyOp15
 70
     1
102
RTVSPropertyOp16
 70
     1
102
RTVSPropertyOp17
 70
     1
102
RTVSPropertyOp18
 70
     1
102
RTVSPropertyOp19
 70
     1
102
RTVSPropertyOp20
 70
     1
102
RTVSPropertyOp21
 70
     1
102
RTVSPropertyOp22
 70
     1
102
RTVSPropertyOp23
 70
     1
102
RTVSPropertyOp24
 70
     1
102
RTVSPropertyOp25
 70
     1
102
RTVSPropertyOp26
 70
     1
102
RTVSPropertyOp27
 70
     1
102
RTVSPropertyOp28
 70
     1
102
RTVSPropertyOp29
 70
     1
102
RTVSPropertyOp30
 70
     1
102
RTVSPropertyOp31
 70
     1
102
RTVSPropertyOp32
 70
     1
102
RTVSPropertyOp33
 70
     1
102
RTVSPropertyOp34
 70
     1
102
RTVSPropertyOp35
 70
     1
102
RTVSPropertyOp36
 70
     1
102
RTVSPropertyOp37
 70
     1
102
RTVSPropertyOp38
 70
     1
102
RTVSPropertyOp39
 70
     1
102
RTVSPropertyOp40
 70
     1
102
RTVSPropertyOp41
 70
     1
102
RTVSPropertyOp42
 70
     1
102
RTVSPropertyOp43
 70
     1
102
RTVSPropertyOp44
 70
     1
102
RTVSPropertyOp45
 70
     1
102
RTVSPropertyOp46
 70
     1
102
RTVSPropertyOp47
 70
     1
102
RTVSPropertyOp48
 70
     1
102
RTVSPropertyOp49
 70
     1
102
RTVSPropertyOp50
 70
     1
102
RTVSPropertyOp51
 70
     0
102
RTVSPropertyOp52
 70
     0
102
RTVSPropertyOp53
 70
     1
102
RTVSPropertyOp54
 70
     1
102
RTVSPropertyOp55
 70
     1
102
RTVSPropertyOp56
 70
     1
102
RTVSPropertyOp57
 70
     1
102
RTVSPropertyOp58
 70
     1
102
RTVSPropertyOp59
 70
     1
102
RTVSPropertyOp60
 70
     1
102
RTVSPropertyOp61
 70
     1
102
RTVSPropertyOp62
 70
     1
  0
XRECORD
  5
1332
102
{ACAD_REACTORS
330
1331
102
}
330
1331
100
AcDbXrecord
280
     1
102
RTVSPost2010Prop28
280
     0
102
RTVSPost2010PropOp28
 70
     1
102
RTVSPost2010Prop29
280
     1
102
RTVSPost2010PropOp29
 70
     1
102
RTVSPost2010Prop30
280
     1
102
RTVSPost2010PropOp30
 70
     1
102
RTVSPost2010Prop31
280
     0
102
RTVSPost2010PropOp31
 70
     1
102
RTVSPost2010Prop32
280
     0
102
RTVSPost2010PropOp32
 70
     1
102
RTVSPost2010Prop33
280
     0
102
RTVSPost2010PropOp33
 70
     1
102
RTVSPost2010Prop34
280
     0
102
RTVSPost2010PropOp34
 70
     1
102
RTVSPost2010Prop35
280
     0
102
RTVSPost2010PropOp35
 70
     1
102
RTVSPost2010Prop36
280
     0
102
RTVSPost2010PropOp36
 70
     1
102
RTVSPost2010Prop37
 90
       50
102
RTVSPost2010PropOp37
 70
     1
102
RTVSPost2010Prop38
140
0.0
102
RTVSPost2010PropOp38
 70
     1
102
RTVSPost2010Prop39
140
1.0
102
RTVSPost2010PropOp39
 70
     1
102
RTVSPost2010Prop40
 90
        0
102
RTVSPost2010PropOp40
 70
     1
102
RTVSPost2010Prop41ColorIndex
 90
       18
102
RTVSPost2010Prop41ColorRGB
 90
        0
102
RTVSPost2010PropOp41
 70
     1
102
RTVSPost2010Prop42
 90
       50
102
RTVSPost2010PropOp42
 70
     1
102
RTVSPost2010Prop43
 90
        3
102
RTVSPost2010PropOp43
 70
     1
102
RTVSPost2010Prop44ColorIndex
 90
        5
102
RTVSPost2010Prop44ColorRGB
 90
      255
102
RTVSPost2010PropOp44
 70
     1
102
RTVSPost2010Prop45
280
     0
102
RTVSPost2010PropOp45
 70
     1
102
RTVSPost2010Prop46
 90
       50
102
RTVSPost2010PropOp46
 70
     1
102
RTVSPost2010Prop47
 90
       50
102
RTVSPost2010PropOp47
 70
     1
102
RTVSPost2010Prop48
 90
       50
102
RTVSPost2010PropOp48
 70
     1
102
RTVSPost2010Prop49
280
     0
102
RTVSPost2010PropOp49
 70
     1
102
RTVSPost2010Prop50
 90
       50
102
RTVSPost2010PropOp50
 70
     1
102
RTVSPost2010Prop51ColorIndex
 90
      256
102
RTVSPost2010Prop51ColorRGB
 90
-16777216
102
RTVSPost2010PropOp51
 70
     0
102
RTVSPost2010Prop52
140
1.0
102
RTVSPost2010PropOp52
 70
     0
102
RTVSPost2010Prop53
 90
        0
102
RTVSPost2010PropOp53
 70
     1
102
RTVSPost2010Prop54
  1
strokes_ogs.tif
102
RTVSPost2010PropOp54
 70
     1
102
RTVSPost2010Prop55
280
     0
102
RTVSPost2010PropOp55
 70
     1
102
RTVSPost2010Prop56
140
1.0
102
RTVSPost2010PropOp56
 70
     1
102
RTVSPost2010Prop57
140
1.0
102
RTVSPost2010PropOp57
 70
     1
102
RTVSPropertyOp0
 70
     1
102
RTVSPropertyOp1
 70
     1
102
RTVSPropertyOp2
 70
     1
102
RTVSPropertyOp3
 70
     1
102
RTVSPropertyOp4
 70
     1
102
RTVSPropertyOp5
 70
     1
102
RTVSPropertyOp6
 70
     1
102
RTVSPropertyOp7
 70
     1
102
RTVSPropertyOp8
 70
     1
102
RTVSPropertyOp9
 70
     1
102
RTVSPropertyOp10
 70
     1
102
RTVSPropertyOp11
 70
     1
102
RTVSPropertyOp12
 70
     1
102
RTVSPropertyOp13
 70
     1
102
RTVSPropertyOp14
 70
     1
102
RTVSPropertyOp15
 70
     1
102
RTVSPropertyOp16
 70
     1
102
RTVSPropertyOp17
 70
     1
102
RTVSPropertyOp18
 70
     1
102
RTVSPropertyOp19
 70
     1
102
RTVSPropertyOp20
 70
     1
102
RTVSPropertyOp21
 70
     1
102
RTVSPropertyOp22
 70
     1
102
RTVSPropertyOp23
 70
     1
102
RTVSPropertyOp24
 70
     1
102
RTVSPropertyOp25
 70
     1
102
RTVSPropertyOp26
 70
     1
102
RTVSPropertyOp27
 70
     1
102
RTVSPropertyOp28
 70
     1
102
RTVSPropertyOp29
 70
     1
102
RTVSPropertyOp30
 70
     1
102
RTVSPropertyOp31
 70
     1
102
RTVSPropertyOp32
 70
     1
102
RTVSPropertyOp33
 70
     1
102
RTVSPropertyOp34
 70
     1
102
RTVSPropertyOp35
 70
     1
102
RTVSPropertyOp36
 70
     1
102
RTVSPropertyOp37
 70
     1
102
RTVSPropertyOp38
 70
     1
102
RTVSPropertyOp39
 70
     1
102
RTVSPropertyOp40
 70
     1
102
RTVSPropertyOp41
 70
     1
102
RTVSPropertyOp42
 70
     1
102
RTVSPropertyOp43
 70
     1
102
RTVSPropertyOp44
 70
     1
102
RTVSPropertyOp45
 70
     1
102
RTVSPropertyOp46
 70
     1
102
RTVSPropertyOp47
 70
     1
102
RTVSPropertyOp48
 70
     1
102
RTVSPropertyOp49
 70
     1
102
RTVSPropertyOp50
 70
     1
102
RTVSPropertyOp51
 70
     0
102
RTVSPropertyOp52
 70
     0
102
RTVSPropertyOp53
 70
     1
102
RTVSPropertyOp54
 70
     1
102
RTVSPropertyOp55
 70
     1
102
RTVSPropertyOp56
 70
     1
102
RTVSPropertyOp57
 70
     1
102
RTVSPropertyOp58
 70
     1
102
RTVSPropertyOp59
 70
     1
102
RTVSPropertyOp60
 70
     1
102
RTVSPropertyOp61
 70
     1
102
RTVSPropertyOp62
 70
     1
  0
XRECORD
  5
133A
102
{ACAD_REACTORS
330
1339
102
}
330
1339
100
AcDbXrecord
280
     1
102
RTVSPost2010Prop28
280
     0
102
RTVSPost2010PropOp28
 70
     1
102
RTVSPost2010Prop29
280
     1
102
RTVSPost2010PropOp29
 70
     1
102
RTVSPost2010Prop30
280
     1
102
RTVSPost2010PropOp30
 70
     1
102
RTVSPost2010Prop31
280
     0
102
RTVSPost2010PropOp31
 70
     1
102
RTVSPost2010Prop32
280
     0
102
RTVSPost2010PropOp32
 70
     1
102
RTVSPost2010Prop33
280
     0
102
RTVSPost2010PropOp33
 70
     1
102
RTVSPost2010Prop34
280
     0
102
RTVSPost2010PropOp34
 70
     1
102
RTVSPost2010Prop35
280
     0
102
RTVSPost2010PropOp35
 70
     1
102
RTVSPost2010Prop36
280
     0
102
RTVSPost2010PropOp36
 70
     1
102
RTVSPost2010Prop37
 90
       50
102
RTVSPost2010PropOp37
 70
     1
102
RTVSPost2010Prop38
140
0.0
102
RTVSPost2010PropOp38
 70
     1
102
RTVSPost2010Prop39
140
1.0
102
RTVSPost2010PropOp39
 70
     1
102
RTVSPost2010Prop40
 90
        0
102
RTVSPost2010PropOp40
 70
     1
102
RTVSPost2010Prop41ColorIndex
 90
       18
102
RTVSPost2010Prop41ColorRGB
 90
        0
102
RTVSPost2010PropOp41
 70
     1
102
RTVSPost2010Prop42
 90
       50
102
RTVSPost2010PropOp42
 70
     1
102
RTVSPost2010Prop43
 90
        3
102
RTVSPost2010PropOp43
 70
     1
102
RTVSPost2010Prop44ColorIndex
 90
        5
102
RTVSPost2010Prop44ColorRGB
 90
      255
102
RTVSPost2010PropOp44
 70
     1
102
RTVSPost2010Prop45
280
     0
102
RTVSPost2010PropOp45
 70
     1
102
RTVSPost2010Prop46
 90
       50
102
RTVSPost2010PropOp46
 70
     1
102
RTVSPost2010Prop47
 90
       50
102
RTVSPost2010PropOp47
 70
     1
102
RTVSPost2010Prop48
 90
       50
102
RTVSPost2010PropOp48
 70
     1
102
RTVSPost2010Prop49
280
     0
102
RTVSPost2010PropOp49
 70
     1
102
RTVSPost2010Prop50
 90
       50
102
RTVSPost2010PropOp50
 70
     1
102
RTVSPost2010Prop51ColorIndex
 90
      256
102
RTVSPost2010Prop51ColorRGB
 90
-16777216
102
RTVSPost2010PropOp51
 70
     0
102
RTVSPost2010Prop52
140
1.0
102
RTVSPost2010PropOp52
 70
     0
102
RTVSPost2010Prop53
 90
        0
102
RTVSPost2010PropOp53
 70
     1
102
RTVSPost2010Prop54
  1
strokes_ogs.tif
102
RTVSPost2010PropOp54
 70
     1
102
RTVSPost2010Prop55
280
     0
102
RTVSPost2010PropOp55
 70
     1
102
RTVSPost2010Prop56
140
1.0
102
RTVSPost2010PropOp56
 70
     1
102
RTVSPost2010Prop57
140
1.0
102
RTVSPost2010PropOp57
 70
     1
102
RTVSPropertyOp0
 70
     1
102
RTVSPropertyOp1
 70
     1
102
RTVSPropertyOp2
 70
     1
102
RTVSPropertyOp3
 70
     1
102
RTVSPropertyOp4
 70
     1
102
RTVSPropertyOp5
 70
     1
102
RTVSPropertyOp6
 70
     1
102
RTVSPropertyOp7
 70
     1
102
RTVSPropertyOp8
 70
     1
102
RTVSPropertyOp9
 70
     1
102
RTVSPropertyOp10
 70
     1
102
RTVSPropertyOp11
 70
     1
102
RTVSPropertyOp12
 70
     1
102
RTVSPropertyOp13
 70
     1
102
RTVSPropertyOp14
 70
     1
102
RTVSPropertyOp15
 70
     1
102
RTVSPropertyOp16
 70
     1
102
RTVSPropertyOp17
 70
     1
102
RTVSPropertyOp18
 70
     1
102
RTVSPropertyOp19
 70
     1
102
RTVSPropertyOp20
 70
     1
102
RTVSPropertyOp21
 70
     1
102
RTVSPropertyOp22
 70
     1
102
RTVSPropertyOp23
 70
     1
102
RTVSPropertyOp24
 70
     1
102
RTVSPropertyOp25
 70
     1
102
RTVSPropertyOp26
 70
     1
102
RTVSPropertyOp27
 70
     1
102
RTVSPropertyOp28
 70
     1
102
RTVSPropertyOp29
 70
     1
102
RTVSPropertyOp30
 70
     1
102
RTVSPropertyOp31
 70
     1
102
RTVSPropertyOp32
 70
     1
102
RTVSPropertyOp33
 70
     1
102
RTVSPropertyOp34
 70
     1
102
RTVSPropertyOp35
 70
     1
102
RTVSPropertyOp36
 70
     1
102
RTVSPropertyOp37
 70
     1
102
RTVSPropertyOp38
 70
     1
102
RTVSPropertyOp39
 70
     1
102
RTVSPropertyOp40
 70
     1
102
RTVSPropertyOp41
 70
     1
102
RTVSPropertyOp42
 70
     1
102
RTVSPropertyOp43
 70
     1
102
RTVSPropertyOp44
 70
     1
102
RTVSPropertyOp45
 70
     1
102
RTVSPropertyOp46
 70
     1
102
RTVSPropertyOp47
 70
     1
102
RTVSPropertyOp48
 70
     1
102
RTVSPropertyOp49
 70
     1
102
RTVSPropertyOp50
 70
     1
102
RTVSPropertyOp51
 70
     0
102
RTVSPropertyOp52
 70
     0
102
RTVSPropertyOp53
 70
     1
102
RTVSPropertyOp54
 70
     1
102
RTVSPropertyOp55
 70
     1
102
RTVSPropertyOp56
 70
     1
102
RTVSPropertyOp57
 70
     1
102
RTVSPropertyOp58
 70
     1
102
RTVSPropertyOp59
 70
     1
102
RTVSPropertyOp60
 70
     1
102
RTVSPropertyOp61
 70
     1
102
RTVSPropertyOp62
 70
     1
  0
XRECORD
  5
1342
102
{ACAD_REACTORS
330
1341
102
}
330
1341
100
AcDbXrecord
280
     1
102
RTVSPost2010Prop28
280
     0
102
RTVSPost2010PropOp28
 70
     1
102
RTVSPost2010Prop29
280
     1
102
RTVSPost2010PropOp29
 70
     1
102
RTVSPost2010Prop30
280
     1
102
RTVSPost2010PropOp30
 70
     1
102
RTVSPost2010Prop31
280
     0
102
RTVSPost2010PropOp31
 70
     1
102
RTVSPost2010Prop32
280
     0
102
RTVSPost2010PropOp32
 70
     1
102
RTVSPost2010Prop33
280
     0
102
RTVSPost2010PropOp33
 70
     1
102
RTVSPost2010Prop34
280
     0
102
RTVSPost2010PropOp34
 70
     1
102
RTVSPost2010Prop35
280
     0
102
RTVSPost2010PropOp35
 70
     1
102
RTVSPost2010Prop36
280
     0
102
RTVSPost2010PropOp36
 70
     1
102
RTVSPost2010Prop37
 90
       50
102
RTVSPost2010PropOp37
 70
     1
102
RTVSPost2010Prop38
140
0.0
102
RTVSPost2010PropOp38
 70
     1
102
RTVSPost2010Prop39
140
1.0
102
RTVSPost2010PropOp39
 70
     1
102
RTVSPost2010Prop40
 90
        0
102
RTVSPost2010PropOp40
 70
     1
102
RTVSPost2010Prop41ColorIndex
 90
       18
102
RTVSPost2010Prop41ColorRGB
 90
        0
102
RTVSPost2010PropOp41
 70
     1
102
RTVSPost2010Prop42
 90
       50
102
RTVSPost2010PropOp42
 70
     1
102
RTVSPost2010Prop43
 90
        3
102
RTVSPost2010PropOp43
 70
     1
102
RTVSPost2010Prop44ColorIndex
 90
        5
102
RTVSPost2010Prop44ColorRGB
 90
      255
102
RTVSPost2010PropOp44
 70
     1
102
RTVSPost2010Prop45
280
     0
102
RTVSPost2010PropOp45
 70
     1
102
RTVSPost2010Prop46
 90
       50
102
RTVSPost2010PropOp46
 70
     1
102
RTVSPost2010Prop47
 90
       50
102
RTVSPost2010PropOp47
 70
     1
102
RTVSPost2010Prop48
 90
       50
102
RTVSPost2010PropOp48
 70
     1
102
RTVSPost2010Prop49
280
     0
102
RTVSPost2010PropOp49
 70
     1
102
RTVSPost2010Prop50
 90
       50
102
RTVSPost2010PropOp50
 70
     1
102
RTVSPost2010Prop51ColorIndex
 90
      256
102
RTVSPost2010Prop51ColorRGB
 90
-16777216
102
RTVSPost2010PropOp51
 70
     0
102
RTVSPost2010Prop52
140
1.0
102
RTVSPost2010PropOp52
 70
     0
102
RTVSPost2010Prop53
 90
        0
102
RTVSPost2010PropOp53
 70
     1
102
RTVSPost2010Prop54
  1
strokes_ogs.tif
102
RTVSPost2010PropOp54
 70
     1
102
RTVSPost2010Prop55
280
     0
102
RTVSPost2010PropOp55
 70
     1
102
RTVSPost2010Prop56
140
1.0
102
RTVSPost2010PropOp56
 70
     1
102
RTVSPost2010Prop57
140
1.0
102
RTVSPost2010PropOp57
 70
     1
102
RTVSPropertyOp0
 70
     1
102
RTVSPropertyOp1
 70
     1
102
RTVSPropertyOp2
 70
     1
102
RTVSPropertyOp3
 70
     1
102
RTVSPropertyOp4
 70
     1
102
RTVSPropertyOp5
 70
     1
102
RTVSPropertyOp6
 70
     1
102
RTVSPropertyOp7
 70
     1
102
RTVSPropertyOp8
 70
     1
102
RTVSPropertyOp9
 70
     1
102
RTVSPropertyOp10
 70
     1
102
RTVSPropertyOp11
 70
     1
102
RTVSPropertyOp12
 70
     1
102
RTVSPropertyOp13
 70
     1
102
RTVSPropertyOp14
 70
     1
102
RTVSPropertyOp15
 70
     1
102
RTVSPropertyOp16
 70
     1
102
RTVSPropertyOp17
 70
     1
102
RTVSPropertyOp18
 70
     1
102
RTVSPropertyOp19
 70
     1
102
RTVSPropertyOp20
 70
     1
102
RTVSPropertyOp21
 70
     1
102
RTVSPropertyOp22
 70
     1
102
RTVSPropertyOp23
 70
     1
102
RTVSPropertyOp24
 70
     1
102
RTVSPropertyOp25
 70
     1
102
RTVSPropertyOp26
 70
     1
102
RTVSPropertyOp27
 70
     1
102
RTVSPropertyOp28
 70
     1
102
RTVSPropertyOp29
 70
     1
102
RTVSPropertyOp30
 70
     1
102
RTVSPropertyOp31
 70
     1
102
RTVSPropertyOp32
 70
     1
102
RTVSPropertyOp33
 70
     1
102
RTVSPropertyOp34
 70
     1
102
RTVSPropertyOp35
 70
     1
102
RTVSPropertyOp36
 70
     1
102
RTVSPropertyOp37
 70
     1
102
RTVSPropertyOp38
 70
     1
102
RTVSPropertyOp39
 70
     1
102
RTVSPropertyOp40
 70
     1
102
RTVSPropertyOp41
 70
     1
102
RTVSPropertyOp42
 70
     1
102
RTVSPropertyOp43
 70
     1
102
RTVSPropertyOp44
 70
     1
102
RTVSPropertyOp45
 70
     1
102
RTVSPropertyOp46
 70
     1
102
RTVSPropertyOp47
 70
     1
102
RTVSPropertyOp48
 70
     1
102
RTVSPropertyOp49
 70
     1
102
RTVSPropertyOp50
 70
     1
102
RTVSPropertyOp51
 70
     0
102
RTVSPropertyOp52
 70
     0
102
RTVSPropertyOp53
 70
     1
102
RTVSPropertyOp54
 70
     1
102
RTVSPropertyOp55
 70
     1
102
RTVSPropertyOp56
 70
     1
102
RTVSPropertyOp57
 70
     1
102
RTVSPropertyOp58
 70
     1
102
RTVSPropertyOp59
 70
     1
102
RTVSPropertyOp60
 70
     1
102
RTVSPropertyOp61
 70
     1
102
RTVSPropertyOp62
 70
     1
  0
XRECORD
  5
1336
102
{ACAD_REACTORS
330
1335
102
}
330
1335
100
AcDbXrecord
280
     1
102
RTVSPost2010Prop28
280
     0
102
RTVSPost2010PropOp28
 70
     1
102
RTVSPost2010Prop29
280
     1
102
RTVSPost2010PropOp29
 70
     1
102
RTVSPost2010Prop30
280
     1
102
RTVSPost2010PropOp30
 70
     1
102
RTVSPost2010Prop31
280
     0
102
RTVSPost2010PropOp31
 70
     1
102
RTVSPost2010Prop32
280
     0
102
RTVSPost2010PropOp32
 70
     1
102
RTVSPost2010Prop33
280
     0
102
RTVSPost2010PropOp33
 70
     1
102
RTVSPost2010Prop34
280
     0
102
RTVSPost2010PropOp34
 70
     1
102
RTVSPost2010Prop35
280
     0
102
RTVSPost2010PropOp35
 70
     1
102
RTVSPost2010Prop36
280
     0
102
RTVSPost2010PropOp36
 70
     1
102
RTVSPost2010Prop37
 90
       50
102
RTVSPost2010PropOp37
 70
     1
102
RTVSPost2010Prop38
140
0.0
102
RTVSPost2010PropOp38
 70
     1
102
RTVSPost2010Prop39
140
1.0
102
RTVSPost2010PropOp39
 70
     1
102
RTVSPost2010Prop40
 90
        0
102
RTVSPost2010PropOp40
 70
     1
102
RTVSPost2010Prop41ColorIndex
 90
       18
102
RTVSPost2010Prop41ColorRGB
 90
        0
102
RTVSPost2010PropOp41
 70
     1
102
RTVSPost2010Prop42
 90
       50
102
RTVSPost2010PropOp42
 70
     1
102
RTVSPost2010Prop43
 90
        3
102
RTVSPost2010PropOp43
 70
     1
102
RTVSPost2010Prop44ColorIndex
 90
        5
102
RTVSPost2010Prop44ColorRGB
 90
      255
102
RTVSPost2010PropOp44
 70
     1
102
RTVSPost2010Prop45
280
     0
102
RTVSPost2010PropOp45
 70
     1
102
RTVSPost2010Prop46
 90
       50
102
RTVSPost2010PropOp46
 70
     1
102
RTVSPost2010Prop47
 90
       50
102
RTVSPost2010PropOp47
 70
     1
102
RTVSPost2010Prop48
 90
       50
102
RTVSPost2010PropOp48
 70
     1
102
RTVSPost2010Prop49
280
     0
102
RTVSPost2010PropOp49
 70
     1
102
RTVSPost2010Prop50
 90
       50
102
RTVSPost2010PropOp50
 70
     1
102
RTVSPost2010Prop51ColorIndex
 90
      256
102
RTVSPost2010Prop51ColorRGB
 90
-16777216
102
RTVSPost2010PropOp51
 70
     0
102
RTVSPost2010Prop52
140
1.0
102
RTVSPost2010PropOp52
 70
     0
102
RTVSPost2010Prop53
 90
        0
102
RTVSPost2010PropOp53
 70
     1
102
RTVSPost2010Prop54
  1
strokes_ogs.tif
102
RTVSPost2010PropOp54
 70
     1
102
RTVSPost2010Prop55
280
     0
102
RTVSPost2010PropOp55
 70
     1
102
RTVSPost2010Prop56
140
1.0
102
RTVSPost2010PropOp56
 70
     1
102
RTVSPost2010Prop57
140
1.0
102
RTVSPost2010PropOp57
 70
     1
102
RTVSPropertyOp0
 70
     1
102
RTVSPropertyOp1
 70
     1
102
RTVSPropertyOp2
 70
     1
102
RTVSPropertyOp3
 70
     1
102
RTVSPropertyOp4
 70
     1
102
RTVSPropertyOp5
 70
     1
102
RTVSPropertyOp6
 70
     1
102
RTVSPropertyOp7
 70
     1
102
RTVSPropertyOp8
 70
     1
102
RTVSPropertyOp9
 70
     1
102
RTVSPropertyOp10
 70
     1
102
RTVSPropertyOp11
 70
     1
102
RTVSPropertyOp12
 70
     1
102
RTVSPropertyOp13
 70
     1
102
RTVSPropertyOp14
 70
     1
102
RTVSPropertyOp15
 70
     1
102
RTVSPropertyOp16
 70
     1
102
RTVSPropertyOp17
 70
     1
102
RTVSPropertyOp18
 70
     1
102
RTVSPropertyOp19
 70
     1
102
RTVSPropertyOp20
 70
     1
102
RTVSPropertyOp21
 70
     1
102
RTVSPropertyOp22
 70
     1
102
RTVSPropertyOp23
 70
     1
102
RTVSPropertyOp24
 70
     1
102
RTVSPropertyOp25
 70
     1
102
RTVSPropertyOp26
 70
     1
102
RTVSPropertyOp27
 70
     1
102
RTVSPropertyOp28
 70
     1
102
RTVSPropertyOp29
 70
     1
102
RTVSPropertyOp30
 70
     1
102
RTVSPropertyOp31
 70
     1
102
RTVSPropertyOp32
 70
     1
102
RTVSPropertyOp33
 70
     1
102
RTVSPropertyOp34
 70
     1
102
RTVSPropertyOp35
 70
     1
102
RTVSPropertyOp36
 70
     1
102
RTVSPropertyOp37
 70
     1
102
RTVSPropertyOp38
 70
     1
102
RTVSPropertyOp39
 70
     1
102
RTVSPropertyOp40
 70
     1
102
RTVSPropertyOp41
 70
     1
102
RTVSPropertyOp42
 70
     1
102
RTVSPropertyOp43
 70
     1
102
RTVSPropertyOp44
 70
     1
102
RTVSPropertyOp45
 70
     1
102
RTVSPropertyOp46
 70
     1
102
RTVSPropertyOp47
 70
     1
102
RTVSPropertyOp48
 70
     1
102
RTVSPropertyOp49
 70
     1
102
RTVSPropertyOp50
 70
     1
102
RTVSPropertyOp51
 70
     0
102
RTVSPropertyOp52
 70
     0
102
RTVSPropertyOp53
 70
     1
102
RTVSPropertyOp54
 70
     1
102
RTVSPropertyOp55
 70
     1
102
RTVSPropertyOp56
 70
     1
102
RTVSPropertyOp57
 70
     1
102
RTVSPropertyOp58
 70
     1
102
RTVSPropertyOp59
 70
     1
102
RTVSPropertyOp60
 70
     1
102
RTVSPropertyOp61
 70
     1
102
RTVSPropertyOp62
 70
     1
  0
XRECORD
  5
1338
102
{ACAD_REACTORS
330
1337
102
}
330
1337
100
AcDbXrecord
280
     1
102
RTVSPost2010Prop28
280
     0
102
RTVSPost2010PropOp28
 70
     1
102
RTVSPost2010Prop29
280
     1
102
RTVSPost2010PropOp29
 70
     1
102
RTVSPost2010Prop30
280
     1
102
RTVSPost2010PropOp30
 70
     1
102
RTVSPost2010Prop31
280
     0
102
RTVSPost2010PropOp31
 70
     1
102
RTVSPost2010Prop32
280
     0
102
RTVSPost2010PropOp32
 70
     1
102
RTVSPost2010Prop33
280
     0
102
RTVSPost2010PropOp33
 70
     1
102
RTVSPost2010Prop34
280
     0
102
RTVSPost2010PropOp34
 70
     1
102
RTVSPost2010Prop35
280
     0
102
RTVSPost2010PropOp35
 70
     1
102
RTVSPost2010Prop36
280
     0
102
RTVSPost2010PropOp36
 70
     1
102
RTVSPost2010Prop37
 90
       50
102
RTVSPost2010PropOp37
 70
     1
102
RTVSPost2010Prop38
140
0.0
102
RTVSPost2010PropOp38
 70
     1
102
RTVSPost2010Prop39
140
1.0
102
RTVSPost2010PropOp39
 70
     1
102
RTVSPost2010Prop40
 90
        0
102
RTVSPost2010PropOp40
 70
     1
102
RTVSPost2010Prop41ColorIndex
 90
       18
102
RTVSPost2010Prop41ColorRGB
 90
        0
102
RTVSPost2010PropOp41
 70
     1
102
RTVSPost2010Prop42
 90
       50
102
RTVSPost2010PropOp42
 70
     1
102
RTVSPost2010Prop43
 90
        3
102
RTVSPost2010PropOp43
 70
     1
102
RTVSPost2010Prop44ColorIndex
 90
        5
102
RTVSPost2010Prop44ColorRGB
 90
      255
102
RTVSPost2010PropOp44
 70
     1
102
RTVSPost2010Prop45
280
     0
102
RTVSPost2010PropOp45
 70
     1
102
RTVSPost2010Prop46
 90
       50
102
RTVSPost2010PropOp46
 70
     1
102
RTVSPost2010Prop47
 90
       50
102
RTVSPost2010PropOp47
 70
     1
102
RTVSPost2010Prop48
 90
       50
102
RTVSPost2010PropOp48
 70
     1
102
RTVSPost2010Prop49
280
     0
102
RTVSPost2010PropOp49
 70
     1
102
RTVSPost2010Prop50
 90
       50
102
RTVSPost2010PropOp50
 70
     1
102
RTVSPost2010Prop51ColorIndex
 90
      256
102
RTVSPost2010Prop51ColorRGB
 90
-16777216
102
RTVSPost2010PropOp51
 70
     0
102
RTVSPost2010Prop52
140
1.0
102
RTVSPost2010PropOp52
 70
     0
102
RTVSPost2010Prop53
 90
        0
102
RTVSPost2010PropOp53
 70
     1
102
RTVSPost2010Prop54
  1
strokes_ogs.tif
102
RTVSPost2010PropOp54
 70
     1
102
RTVSPost2010Prop55
280
     0
102
RTVSPost2010PropOp55
 70
     1
102
RTVSPost2010Prop56
140
1.0
102
RTVSPost2010PropOp56
 70
     1
102
RTVSPost2010Prop57
140
1.0
102
RTVSPost2010PropOp57
 70
     1
102
RTVSPropertyOp0
 70
     1
102
RTVSPropertyOp1
 70
     1
102
RTVSPropertyOp2
 70
     1
102
RTVSPropertyOp3
 70
     1
102
RTVSPropertyOp4
 70
     1
102
RTVSPropertyOp5
 70
     1
102
RTVSPropertyOp6
 70
     1
102
RTVSPropertyOp7
 70
     1
102
RTVSPropertyOp8
 70
     1
102
RTVSPropertyOp9
 70
     1
102
RTVSPropertyOp10
 70
     1
102
RTVSPropertyOp11
 70
     1
102
RTVSPropertyOp12
 70
     1
102
RTVSPropertyOp13
 70
     1
102
RTVSPropertyOp14
 70
     1
102
RTVSPropertyOp15
 70
     1
102
RTVSPropertyOp16
 70
     1
102
RTVSPropertyOp17
 70
     1
102
RTVSPropertyOp18
 70
     1
102
RTVSPropertyOp19
 70
     1
102
RTVSPropertyOp20
 70
     1
102
RTVSPropertyOp21
 70
     1
102
RTVSPropertyOp22
 70
     1
102
RTVSPropertyOp23
 70
     1
102
RTVSPropertyOp24
 70
     1
102
RTVSPropertyOp25
 70
     1
102
RTVSPropertyOp26
 70
     1
102
RTVSPropertyOp27
 70
     1
102
RTVSPropertyOp28
 70
     1
102
RTVSPropertyOp29
 70
     1
102
RTVSPropertyOp30
 70
     1
102
RTVSPropertyOp31
 70
     1
102
RTVSPropertyOp32
 70
     1
102
RTVSPropertyOp33
 70
     1
102
RTVSPropertyOp34
 70
     1
102
RTVSPropertyOp35
 70
     1
102
RTVSPropertyOp36
 70
     1
102
RTVSPropertyOp37
 70
     1
102
RTVSPropertyOp38
 70
     1
102
RTVSPropertyOp39
 70
     1
102
RTVSPropertyOp40
 70
     1
102
RTVSPropertyOp41
 70
     1
102
RTVSPropertyOp42
 70
     1
102
RTVSPropertyOp43
 70
     1
102
RTVSPropertyOp44
 70
     1
102
RTVSPropertyOp45
 70
     1
102
RTVSPropertyOp46
 70
     1
102
RTVSPropertyOp47
 70
     1
102
RTVSPropertyOp48
 70
     1
102
RTVSPropertyOp49
 70
     1
102
RTVSPropertyOp50
 70
     1
102
RTVSPropertyOp51
 70
     0
102
RTVSPropertyOp52
 70
     0
102
RTVSPropertyOp53
 70
     1
102
RTVSPropertyOp54
 70
     1
102
RTVSPropertyOp55
 70
     1
102
RTVSPropertyOp56
 70
     1
102
RTVSPropertyOp57
 70
     1
102
RTVSPropertyOp58
 70
     1
102
RTVSPropertyOp59
 70
     1
102
RTVSPropertyOp60
 70
     1
102
RTVSPropertyOp61
 70
     1
102
RTVSPropertyOp62
 70
     1
  0
XRECORD
  5
1348
102
{ACAD_REACTORS
330
1347
102
}
330
1347
100
AcDbXrecord
280
     1
102
RTVSPost2010Prop28
280
     0
102
RTVSPost2010PropOp28
 70
     0
102
RTVSPost2010Prop29
280
     1
102
RTVSPost2010PropOp29
 70
     0
102
RTVSPost2010Prop30
280
     1
102
RTVSPost2010PropOp30
 70
     0
102
RTVSPost2010Prop31
280
     0
102
RTVSPost2010PropOp31
 70
     0
102
RTVSPost2010Prop32
280
     0
102
RTVSPost2010PropOp32
 70
     0
102
RTVSPost2010Prop33
280
     0
102
RTVSPost2010PropOp33
 70
     0
102
RTVSPost2010Prop34
280
     0
102
RTVSPost2010PropOp34
 70
     0
102
RTVSPost2010Prop35
280
     0
102
RTVSPost2010PropOp35
 70
     0
102
RTVSPost2010Prop36
280
     0
102
RTVSPost2010PropOp36
 70
     0
102
RTVSPost2010Prop37
 90
       50
102
RTVSPost2010PropOp37
 70
     0
102
RTVSPost2010Prop38
140
0.0
102
RTVSPost2010PropOp38
 70
     0
102
RTVSPost2010Prop39
140
1.0
102
RTVSPost2010PropOp39
 70
     0
102
RTVSPost2010Prop40
 90
        0
102
RTVSPost2010PropOp40
 70
     0
102
RTVSPost2010Prop41ColorIndex
 90
       18
102
RTVSPost2010Prop41ColorRGB
 90
        0
102
RTVSPost2010PropOp41
 70
     0
102
RTVSPost2010Prop42
 90
       50
102
RTVSPost2010PropOp42
 70
     0
102
RTVSPost2010Prop43
 90
        3
102
RTVSPost2010PropOp43
 70
     0
102
RTVSPost2010Prop44ColorIndex
 90
        5
102
RTVSPost2010Prop44ColorRGB
 90
      255
102
RTVSPost2010PropOp44
 70
     0
102
RTVSPost2010Prop45
280
     0
102
RTVSPost2010PropOp45
 70
     0
102
RTVSPost2010Prop46
 90
       50
102
RTVSPost2010PropOp46
 70
     0
102
RTVSPost2010Prop47
 90
       50
102
RTVSPost2010PropOp47
 70
     0
102
RTVSPost2010Prop48
 90
       50
102
RTVSPost2010PropOp48
 70
     0
102
RTVSPost2010Prop49
280
     0
102
RTVSPost2010PropOp49
 70
     0
102
RTVSPost2010Prop50
 90
       50
102
RTVSPost2010PropOp50
 70
     0
102
RTVSPost2010Prop51ColorIndex
 90
      256
102
RTVSPost2010Prop51ColorRGB
 90
-16777216
102
RTVSPost2010PropOp51
 70
     0
102
RTVSPost2010Prop52
140
1.0
102
RTVSPost2010PropOp52
 70
     0
102
RTVSPost2010Prop53
 90
        0
102
RTVSPost2010PropOp53
 70
     0
102
RTVSPost2010Prop54
  1
strokes_ogs.tif
102
RTVSPost2010PropOp54
 70
     0
102
RTVSPost2010Prop55
280
     0
102
RTVSPost2010PropOp55
 70
     0
102
RTVSPost2010Prop56
140
1.0
102
RTVSPost2010PropOp56
 70
     0
102
RTVSPost2010Prop57
140
1.0
102
RTVSPost2010PropOp57
 70
     0
102
RTVSPropertyOp0
 70
     0
102
RTVSPropertyOp1
 70
     0
102
RTVSPropertyOp2
 70
     0
102
RTVSPropertyOp3
 70
     0
102
RTVSPropertyOp4
 70
     0
102
RTVSPropertyOp5
 70
     0
102
RTVSPropertyOp6
 70
     0
102
RTVSPropertyOp7
 70
     0
102
RTVSPropertyOp8
 70
     0
102
RTVSPropertyOp9
 70
     0
102
RTVSPropertyOp10
 70
     0
102
RTVSPropertyOp11
 70
     0
102
RTVSPropertyOp12
 70
     0
102
RTVSPropertyOp13
 70
     0
102
RTVSPropertyOp14
 70
     2
102
RTVSPropertyOp15
 70
     0
102
RTVSPropertyOp16
 70
     0
102
RTVSPropertyOp17
 70
     0
102
RTVSPropertyOp18
 70
     0
102
RTVSPropertyOp19
 70
     0
102
RTVSPropertyOp20
 70
     0
102
RTVSPropertyOp21
 70
     0
102
RTVSPropertyOp22
 70
     0
102
RTVSPropertyOp23
 70
     0
102
RTVSPropertyOp24
 70
     0
102
RTVSPropertyOp25
 70
     0
102
RTVSPropertyOp26
 70
     0
102
RTVSPropertyOp27
 70
     0
102
RTVSPropertyOp28
 70
     0
102
RTVSPropertyOp29
 70
     0
102
RTVSPropertyOp30
 70
     0
102
RTVSPropertyOp31
 70
     0
102
RTVSPropertyOp32
 70
     0
102
RTVSPropertyOp33
 70
     0
102
RTVSPropertyOp34
 70
     0
102
RTVSPropertyOp35
 70
     0
102
RTVSPropertyOp36
 70
     0
102
RTVSPropertyOp37
 70
     0
102
RTVSPropertyOp38
 70
     0
102
RTVSPropertyOp39
 70
     0
102
RTVSPropertyOp40
 70
     0
102
RTVSPropertyOp41
 70
     0
102
RTVSPropertyOp42
 70
     0
102
RTVSPropertyOp43
 70
     0
102
RTVSPropertyOp44
 70
     0
102
RTVSPropertyOp45
 70
     0
102
RTVSPropertyOp46
 70
     0
102
RTVSPropertyOp47
 70
     0
102
RTVSPropertyOp48
 70
     0
102
RTVSPropertyOp49
 70
     0
102
RTVSPropertyOp50
 70
     0
102
RTVSPropertyOp51
 70
     0
102
RTVSPropertyOp52
 70
     0
102
RTVSPropertyOp53
 70
     0
102
RTVSPropertyOp54
 70
     0
102
RTVSPropertyOp55
 70
     0
102
RTVSPropertyOp56
 70
     0
102
RTVSPropertyOp57
 70
     0
102
RTVSPropertyOp58
 70
     1
102
RTVSPropertyOp59
 70
     1
102
RTVSPropertyOp60
 70
     1
102
RTVSPropertyOp61
 70
     1
102
RTVSPropertyOp62
 70
     1
  0
XRECORD
  5
1340
102
{ACAD_REACTORS
330
133F
102
}
330
133F
100
AcDbXrecord
280
     1
102
RTVSPost2010Prop28
280
     0
102
RTVSPost2010PropOp28
 70
     1
102
RTVSPost2010Prop29
280
     1
102
RTVSPost2010PropOp29
 70
     1
102
RTVSPost2010Prop30
280
     1
102
RTVSPost2010PropOp30
 70
     1
102
RTVSPost2010Prop31
280
     0
102
RTVSPost2010PropOp31
 70
     1
102
RTVSPost2010Prop32
280
     0
102
RTVSPost2010PropOp32
 70
     1
102
RTVSPost2010Prop33
280
     0
102
RTVSPost2010PropOp33
 70
     1
102
RTVSPost2010Prop34
280
     0
102
RTVSPost2010PropOp34
 70
     1
102
RTVSPost2010Prop35
280
     0
102
RTVSPost2010PropOp35
 70
     1
102
RTVSPost2010Prop36
280
     0
102
RTVSPost2010PropOp36
 70
     1
102
RTVSPost2010Prop37
 90
       50
102
RTVSPost2010PropOp37
 70
     1
102
RTVSPost2010Prop38
140
0.0
102
RTVSPost2010PropOp38
 70
     1
102
RTVSPost2010Prop39
140
1.0
102
RTVSPost2010PropOp39
 70
     1
102
RTVSPost2010Prop40
 90
        0
102
RTVSPost2010PropOp40
 70
     1
102
RTVSPost2010Prop41ColorIndex
 90
       18
102
RTVSPost2010Prop41ColorRGB
 90
        0
102
RTVSPost2010PropOp41
 70
     1
102
RTVSPost2010Prop42
 90
       50
102
RTVSPost2010PropOp42
 70
     1
102
RTVSPost2010Prop43
 90
        3
102
RTVSPost2010PropOp43
 70
     1
102
RTVSPost2010Prop44ColorIndex
 90
        5
102
RTVSPost2010Prop44ColorRGB
 90
      255
102
RTVSPost2010PropOp44
 70
     1
102
RTVSPost2010Prop45
280
     0
102
RTVSPost2010PropOp45
 70
     1
102
RTVSPost2010Prop46
 90
       50
102
RTVSPost2010PropOp46
 70
     1
102
RTVSPost2010Prop47
 90
       50
102
RTVSPost2010PropOp47
 70
     1
102
RTVSPost2010Prop48
 90
       50
102
RTVSPost2010PropOp48
 70
     1
102
RTVSPost2010Prop49
280
     0
102
RTVSPost2010PropOp49
 70
     1
102
RTVSPost2010Prop50
 90
       50
102
RTVSPost2010PropOp50
 70
     1
102
RTVSPost2010Prop51ColorIndex
 90
      256
102
RTVSPost2010Prop51ColorRGB
 90
-16777216
102
RTVSPost2010PropOp51
 70
     0
102
RTVSPost2010Prop52
140
1.0
102
RTVSPost2010PropOp52
 70
     0
102
RTVSPost2010Prop53
 90
        0
102
RTVSPost2010PropOp53
 70
     1
102
RTVSPost2010Prop54
  1
strokes_ogs.tif
102
RTVSPost2010PropOp54
 70
     1
102
RTVSPost2010Prop55
280
     0
102
RTVSPost2010PropOp55
 70
     1
102
RTVSPost2010Prop56
140
1.0
102
RTVSPost2010PropOp56
 70
     1
102
RTVSPost2010Prop57
140
1.0
102
RTVSPost2010PropOp57
 70
     1
102
RTVSPropertyOp0
 70
     1
102
RTVSPropertyOp1
 70
     1
102
RTVSPropertyOp2
 70
     1
102
RTVSPropertyOp3
 70
     1
102
RTVSPropertyOp4
 70
     1
102
RTVSPropertyOp5
 70
     1
102
RTVSPropertyOp6
 70
     1
102
RTVSPropertyOp7
 70
     1
102
RTVSPropertyOp8
 70
     1
102
RTVSPropertyOp9
 70
     1
102
RTVSPropertyOp10
 70
     1
102
RTVSPropertyOp11
 70
     1
102
RTVSPropertyOp12
 70
     1
102
RTVSPropertyOp13
 70
     1
102
RTVSPropertyOp14
 70
     1
102
RTVSPropertyOp15
 70
     1
102
RTVSPropertyOp16
 70
     1
102
RTVSPropertyOp17
 70
     1
102
RTVSPropertyOp18
 70
     1
102
RTVSPropertyOp19
 70
     1
102
RTVSPropertyOp20
 70
     1
102
RTVSPropertyOp21
 70
     1
102
RTVSPropertyOp22
 70
     1
102
RTVSPropertyOp23
 70
     1
102
RTVSPropertyOp24
 70
     1
102
RTVSPropertyOp25
 70
     1
102
RTVSPropertyOp26
 70
     1
102
RTVSPropertyOp27
 70
     1
102
RTVSPropertyOp28
 70
     1
102
RTVSPropertyOp29
 70
     1
102
RTVSPropertyOp30
 70
     1
102
RTVSPropertyOp31
 70
     1
102
RTVSPropertyOp32
 70
     1
102
RTVSPropertyOp33
 70
     1
102
RTVSPropertyOp34
 70
     1
102
RTVSPropertyOp35
 70
     1
102
RTVSPropertyOp36
 70
     1
102
RTVSPropertyOp37
 70
     1
102
RTVSPropertyOp38
 70
     1
102
RTVSPropertyOp39
 70
     1
102
RTVSPropertyOp40
 70
     1
102
RTVSPropertyOp41
 70
     1
102
RTVSPropertyOp42
 70
     1
102
RTVSPropertyOp43
 70
     1
102
RTVSPropertyOp44
 70
     1
102
RTVSPropertyOp45
 70
     1
102
RTVSPropertyOp46
 70
     1
102
RTVSPropertyOp47
 70
     1
102
RTVSPropertyOp48
 70
     1
102
RTVSPropertyOp49
 70
     1
102
RTVSPropertyOp50
 70
     1
102
RTVSPropertyOp51
 70
     0
102
RTVSPropertyOp52
 70
     0
102
RTVSPropertyOp53
 70
     1
102
RTVSPropertyOp54
 70
     1
102
RTVSPropertyOp55
 70
     1
102
RTVSPropertyOp56
 70
     1
102
RTVSPropertyOp57
 70
     1
102
RTVSPropertyOp58
 70
     1
102
RTVSPropertyOp59
 70
     1
102
RTVSPropertyOp60
 70
     1
102
RTVSPropertyOp61
 70
     1
102
RTVSPropertyOp62
 70
     1
  0
XRECORD
  5
1324
102
{ACAD_REACTORS
330
1323
102
}
330
1323
100
AcDbXrecord
280
     1
102
RTVSPost2010Prop28
280
     0
102
RTVSPost2010PropOp28
 70
     1
102
RTVSPost2010Prop29
280
     1
102
RTVSPost2010PropOp29
 70
     1
102
RTVSPost2010Prop30
280
     1
102
RTVSPost2010PropOp30
 70
     1
102
RTVSPost2010Prop31
280
     0
102
RTVSPost2010PropOp31
 70
     1
102
RTVSPost2010Prop32
280
     0
102
RTVSPost2010PropOp32
 70
     1
102
RTVSPost2010Prop33
280
     0
102
RTVSPost2010PropOp33
 70
     1
102
RTVSPost2010Prop34
280
     0
102
RTVSPost2010PropOp34
 70
     1
102
RTVSPost2010Prop35
280
     0
102
RTVSPost2010PropOp35
 70
     1
102
RTVSPost2010Prop36
280
     0
102
RTVSPost2010PropOp36
 70
     1
102
RTVSPost2010Prop37
 90
       50
102
RTVSPost2010PropOp37
 70
     1
102
RTVSPost2010Prop38
140
0.0
102
RTVSPost2010PropOp38
 70
     1
102
RTVSPost2010Prop39
140
1.0
102
RTVSPost2010PropOp39
 70
     1
102
RTVSPost2010Prop40
 90
        0
102
RTVSPost2010PropOp40
 70
     1
102
RTVSPost2010Prop41ColorIndex
 90
       18
102
RTVSPost2010Prop41ColorRGB
 90
        0
102
RTVSPost2010PropOp41
 70
     1
102
RTVSPost2010Prop42
 90
       50
102
RTVSPost2010PropOp42
 70
     1
102
RTVSPost2010Prop43
 90
        3
102
RTVSPost2010PropOp43
 70
     1
102
RTVSPost2010Prop44ColorIndex
 90
        5
102
RTVSPost2010Prop44ColorRGB
 90
      255
102
RTVSPost2010PropOp44
 70
     1
102
RTVSPost2010Prop45
280
     0
102
RTVSPost2010PropOp45
 70
     1
102
RTVSPost2010Prop46
 90
       50
102
RTVSPost2010PropOp46
 70
     1
102
RTVSPost2010Prop47
 90
       50
102
RTVSPost2010PropOp47
 70
     1
102
RTVSPost2010Prop48
 90
       50
102
RTVSPost2010PropOp48
 70
     1
102
RTVSPost2010Prop49
280
     0
102
RTVSPost2010PropOp49
 70
     1
102
RTVSPost2010Prop50
 90
       50
102
RTVSPost2010PropOp50
 70
     1
102
RTVSPost2010Prop51ColorIndex
 90
      256
102
RTVSPost2010Prop51ColorRGB
 90
-16777216
102
RTVSPost2010PropOp51
 70
     0
102
RTVSPost2010Prop52
140
1.0
102
RTVSPost2010PropOp52
 70
     0
102
RTVSPost2010Prop53
 90
        0
102
RTVSPost2010PropOp53
 70
     1
102
RTVSPost2010Prop54
  1
strokes_ogs.tif
102
RTVSPost2010PropOp54
 70
     1
102
RTVSPost2010Prop55
280
     0
102
RTVSPost2010PropOp55
 70
     1
102
RTVSPost2010Prop56
140
1.0
102
RTVSPost2010PropOp56
 70
     1
102
RTVSPost2010Prop57
140
1.0
102
RTVSPost2010PropOp57
 70
     1
102
RTVSPropertyOp0
 70
     1
102
RTVSPropertyOp1
 70
     1
102
RTVSPropertyOp2
 70
     1
102
RTVSPropertyOp3
 70
     1
102
RTVSPropertyOp4
 70
     1
102
RTVSPropertyOp5
 70
     1
102
RTVSPropertyOp6
 70
     1
102
RTVSPropertyOp7
 70
     1
102
RTVSPropertyOp8
 70
     1
102
RTVSPropertyOp9
 70
     1
102
RTVSPropertyOp10
 70
     1
102
RTVSPropertyOp11
 70
     1
102
RTVSPropertyOp12
 70
     1
102
RTVSPropertyOp13
 70
     1
102
RTVSPropertyOp14
 70
     1
102
RTVSPropertyOp15
 70
     1
102
RTVSPropertyOp16
 70
     1
102
RTVSPropertyOp17
 70
     1
102
RTVSPropertyOp18
 70
     1
102
RTVSPropertyOp19
 70
     1
102
RTVSPropertyOp20
 70
     1
102
RTVSPropertyOp21
 70
     1
102
RTVSPropertyOp22
 70
     1
102
RTVSPropertyOp23
 70
     1
102
RTVSPropertyOp24
 70
     1
102
RTVSPropertyOp25
 70
     1
102
RTVSPropertyOp26
 70
     1
102
RTVSPropertyOp27
 70
     1
102
RTVSPropertyOp28
 70
     1
102
RTVSPropertyOp29
 70
     1
102
RTVSPropertyOp30
 70
     1
102
RTVSPropertyOp31
 70
     1
102
RTVSPropertyOp32
 70
     1
102
RTVSPropertyOp33
 70
     1
102
RTVSPropertyOp34
 70
     1
102
RTVSPropertyOp35
 70
     1
102
RTVSPropertyOp36
 70
     1
102
RTVSPropertyOp37
 70
     1
102
RTVSPropertyOp38
 70
     1
102
RTVSPropertyOp39
 70
     1
102
RTVSPropertyOp40
 70
     1
102
RTVSPropertyOp41
 70
     1
102
RTVSPropertyOp42
 70
     1
102
RTVSPropertyOp43
 70
     1
102
RTVSPropertyOp44
 70
     1
102
RTVSPropertyOp45
 70
     1
102
RTVSPropertyOp46
 70
     1
102
RTVSPropertyOp47
 70
     1
102
RTVSPropertyOp48
 70
     1
102
RTVSPropertyOp49
 70
     1
102
RTVSPropertyOp50
 70
     1
102
RTVSPropertyOp51
 70
     0
102
RTVSPropertyOp52
 70
     0
102
RTVSPropertyOp53
 70
     1
102
RTVSPropertyOp54
 70
     1
102
RTVSPropertyOp55
 70
     1
102
RTVSPropertyOp56
 70
     1
102
RTVSPropertyOp57
 70
     1
102
RTVSPropertyOp58
 70
     1
102
RTVSPropertyOp59
 70
     1
102
RTVSPropertyOp60
 70
     1
102
RTVSPropertyOp61
 70
     1
102
RTVSPropertyOp62
 70
     1
  0
XRECORD
  5
1326
102
{ACAD_REACTORS
330
1325
102
}
330
1325
100
AcDbXrecord
280
     1
102
RTVSPost2010Prop28
280
     0
102
RTVSPost2010PropOp28
 70
     1
102
RTVSPost2010Prop29
280
     1
102
RTVSPost2010PropOp29
 70
     1
102
RTVSPost2010Prop30
280
     1
102
RTVSPost2010PropOp30
 70
     1
102
RTVSPost2010Prop31
280
     0
102
RTVSPost2010PropOp31
 70
     1
102
RTVSPost2010Prop32
280
     0
102
RTVSPost2010PropOp32
 70
     1
102
RTVSPost2010Prop33
280
     0
102
RTVSPost2010PropOp33
 70
     1
102
RTVSPost2010Prop34
280
     0
102
RTVSPost2010PropOp34
 70
     1
102
RTVSPost2010Prop35
280
     0
102
RTVSPost2010PropOp35
 70
     1
102
RTVSPost2010Prop36
280
     0
102
RTVSPost2010PropOp36
 70
     1
102
RTVSPost2010Prop37
 90
       50
102
RTVSPost2010PropOp37
 70
     1
102
RTVSPost2010Prop38
140
0.0
102
RTVSPost2010PropOp38
 70
     1
102
RTVSPost2010Prop39
140
1.0
102
RTVSPost2010PropOp39
 70
     1
102
RTVSPost2010Prop40
 90
        0
102
RTVSPost2010PropOp40
 70
     1
102
RTVSPost2010Prop41ColorIndex
 90
       18
102
RTVSPost2010Prop41ColorRGB
 90
        0
102
RTVSPost2010PropOp41
 70
     1
102
RTVSPost2010Prop42
 90
       50
102
RTVSPost2010PropOp42
 70
     1
102
RTVSPost2010Prop43
 90
        3
102
RTVSPost2010PropOp43
 70
     1
102
RTVSPost2010Prop44ColorIndex
 90
        5
102
RTVSPost2010Prop44ColorRGB
 90
      255
102
RTVSPost2010PropOp44
 70
     1
102
RTVSPost2010Prop45
280
     0
102
RTVSPost2010PropOp45
 70
     1
102
RTVSPost2010Prop46
 90
       50
102
RTVSPost2010PropOp46
 70
     1
102
RTVSPost2010Prop47
 90
       50
102
RTVSPost2010PropOp47
 70
     1
102
RTVSPost2010Prop48
 90
       50
102
RTVSPost2010PropOp48
 70
     1
102
RTVSPost2010Prop49
280
     0
102
RTVSPost2010PropOp49
 70
     1
102
RTVSPost2010Prop50
 90
       50
102
RTVSPost2010PropOp50
 70
     1
102
RTVSPost2010Prop51ColorIndex
 90
      256
102
RTVSPost2010Prop51ColorRGB
 90
-16777216
102
RTVSPost2010PropOp51
 70
     0
102
RTVSPost2010Prop52
140
1.0
102
RTVSPost2010PropOp52
 70
     0
102
RTVSPost2010Prop53
 90
        2
102
RTVSPost2010PropOp53
 70
     1
102
RTVSPost2010Prop54
  1
strokes_ogs.tif
102
RTVSPost2010PropOp54
 70
     1
102
RTVSPost2010Prop55
280
     0
102
RTVSPost2010PropOp55
 70
     1
102
RTVSPost2010Prop56
140
1.0
102
RTVSPost2010PropOp56
 70
     1
102
RTVSPost2010Prop57
140
1.0
102
RTVSPost2010PropOp57
 70
     1
102
RTVSPropertyOp0
 70
     1
102
RTVSPropertyOp1
 70
     1
102
RTVSPropertyOp2
 70
     1
102
RTVSPropertyOp3
 70
     1
102
RTVSPropertyOp4
 70
     1
102
RTVSPropertyOp5
 70
     1
102
RTVSPropertyOp6
 70
     1
102
RTVSPropertyOp7
 70
     1
102
RTVSPropertyOp8
 70
     1
102
RTVSPropertyOp9
 70
     1
102
RTVSPropertyOp10
 70
     1
102
RTVSPropertyOp11
 70
     1
102
RTVSPropertyOp12
 70
     1
102
RTVSPropertyOp13
 70
     1
102
RTVSPropertyOp14
 70
     1
102
RTVSPropertyOp15
 70
     1
102
RTVSPropertyOp16
 70
     1
102
RTVSPropertyOp17
 70
     1
102
RTVSPropertyOp18
 70
     1
102
RTVSPropertyOp19
 70
     1
102
RTVSPropertyOp20
 70
     1
102
RTVSPropertyOp21
 70
     1
102
RTVSPropertyOp22
 70
     1
102
RTVSPropertyOp23
 70
     1
102
RTVSPropertyOp24
 70
     1
102
RTVSPropertyOp25
 70
     1
102
RTVSPropertyOp26
 70
     1
102
RTVSPropertyOp27
 70
     1
102
RTVSPropertyOp28
 70
     1
102
RTVSPropertyOp29
 70
     1
102
RTVSPropertyOp30
 70
     1
102
RTVSPropertyOp31
 70
     1
102
RTVSPropertyOp32
 70
     1
102
RTVSPropertyOp33
 70
     1
102
RTVSPropertyOp34
 70
     1
102
RTVSPropertyOp35
 70
     1
102
RTVSPropertyOp36
 70
     1
102
RTVSPropertyOp37
 70
     1
102
RTVSPropertyOp38
 70
     1
102
RTVSPropertyOp39
 70
     1
102
RTVSPropertyOp40
 70
     1
102
RTVSPropertyOp41
 70
     1
102
RTVSPropertyOp42
 70
     1
102
RTVSPropertyOp43
 70
     1
102
RTVSPropertyOp44
 70
     1
102
RTVSPropertyOp45
 70
     1
102
RTVSPropertyOp46
 70
     1
102
RTVSPropertyOp47
 70
     1
102
RTVSPropertyOp48
 70
     1
102
RTVSPropertyOp49
 70
     1
102
RTVSPropertyOp50
 70
     1
102
RTVSPropertyOp51
 70
     0
102
RTVSPropertyOp52
 70
     0
102
RTVSPropertyOp53
 70
     1
102
RTVSPropertyOp54
 70
     1
102
RTVSPropertyOp55
 70
     1
102
RTVSPropertyOp56
 70
     1
102
RTVSPropertyOp57
 70
     1
102
RTVSPropertyOp58
 70
     1
102
RTVSPropertyOp59
 70
     1
102
RTVSPropertyOp60
 70
     1
102
RTVSPropertyOp61
 70
     1
102
RTVSPropertyOp62
 70
     1
  0
XRECORD
  5
1328
102
{ACAD_REACTORS
330
1327
102
}
330
1327
100
AcDbXrecord
280
     1
102
RTVSPost2010Prop28
280
     0
102
RTVSPost2010PropOp28
 70
     1
102
RTVSPost2010Prop29
280
     1
102
RTVSPost2010PropOp29
 70
     1
102
RTVSPost2010Prop30
280
     1
102
RTVSPost2010PropOp30
 70
     1
102
RTVSPost2010Prop31
280
     0
102
RTVSPost2010PropOp31
 70
     1
102
RTVSPost2010Prop32
280
     0
102
RTVSPost2010PropOp32
 70
     1
102
RTVSPost2010Prop33
280
     0
102
RTVSPost2010PropOp33
 70
     1
102
RTVSPost2010Prop34
280
     0
102
RTVSPost2010PropOp34
 70
     1
102
RTVSPost2010Prop35
280
     0
102
RTVSPost2010PropOp35
 70
     1
102
RTVSPost2010Prop36
280
     0
102
RTVSPost2010PropOp36
 70
     1
102
RTVSPost2010Prop37
 90
       50
102
RTVSPost2010PropOp37
 70
     1
102
RTVSPost2010Prop38
140
0.0
102
RTVSPost2010PropOp38
 70
     1
102
RTVSPost2010Prop39
140
1.0
102
RTVSPost2010PropOp39
 70
     1
102
RTVSPost2010Prop40
 90
        0
102
RTVSPost2010PropOp40
 70
     1
102
RTVSPost2010Prop41ColorIndex
 90
       18
102
RTVSPost2010Prop41ColorRGB
 90
        0
102
RTVSPost2010PropOp41
 70
     1
102
RTVSPost2010Prop42
 90
       50
102
RTVSPost2010PropOp42
 70
     1
102
RTVSPost2010Prop43
 90
        3
102
RTVSPost2010PropOp43
 70
     1
102
RTVSPost2010Prop44ColorIndex
 90
        5
102
RTVSPost2010Prop44ColorRGB
 90
      255
102
RTVSPost2010PropOp44
 70
     1
102
RTVSPost2010Prop45
280
     0
102
RTVSPost2010PropOp45
 70
     1
102
RTVSPost2010Prop46
 90
       50
102
RTVSPost2010PropOp46
 70
     1
102
RTVSPost2010Prop47
 90
       50
102
RTVSPost2010PropOp47
 70
     1
102
RTVSPost2010Prop48
 90
       50
102
RTVSPost2010PropOp48
 70
     1
102
RTVSPost2010Prop49
280
     0
102
RTVSPost2010PropOp49
 70
     1
102
RTVSPost2010Prop50
 90
       50
102
RTVSPost2010PropOp50
 70
     1
102
RTVSPost2010Prop51ColorIndex
 90
      256
102
RTVSPost2010Prop51ColorRGB
 90
-16777216
102
RTVSPost2010PropOp51
 70
     0
102
RTVSPost2010Prop52
140
1.0
102
RTVSPost2010PropOp52
 70
     0
102
RTVSPost2010Prop53
 90
        2
102
RTVSPost2010PropOp53
 70
     1
102
RTVSPost2010Prop54
  1
strokes_ogs.tif
102
RTVSPost2010PropOp54
 70
     1
102
RTVSPost2010Prop55
280
     0
102
RTVSPost2010PropOp55
 70
     1
102
RTVSPost2010Prop56
140
1.0
102
RTVSPost2010PropOp56
 70
     1
102
RTVSPost2010Prop57
140
1.0
102
RTVSPost2010PropOp57
 70
     1
102
RTVSPropertyOp0
 70
     1
102
RTVSPropertyOp1
 70
     1
102
RTVSPropertyOp2
 70
     1
102
RTVSPropertyOp3
 70
     1
102
RTVSPropertyOp4
 70
     1
102
RTVSPropertyOp5
 70
     1
102
RTVSPropertyOp6
 70
     1
102
RTVSPropertyOp7
 70
     1
102
RTVSPropertyOp8
 70
     1
102
RTVSPropertyOp9
 70
     1
102
RTVSPropertyOp10
 70
     1
102
RTVSPropertyOp11
 70
     1
102
RTVSPropertyOp12
 70
     1
102
RTVSPropertyOp13
 70
     1
102
RTVSPropertyOp14
 70
     1
102
RTVSPropertyOp15
 70
     1
102
RTVSPropertyOp16
 70
     1
102
RTVSPropertyOp17
 70
     1
102
RTVSPropertyOp18
 70
     1
102
RTVSPropertyOp19
 70
     1
102
RTVSPropertyOp20
 70
     1
102
RTVSPropertyOp21
 70
     1
102
RTVSPropertyOp22
 70
     1
102
RTVSPropertyOp23
 70
     1
102
RTVSPropertyOp24
 70
     1
102
RTVSPropertyOp25
 70
     1
102
RTVSPropertyOp26
 70
     1
102
RTVSPropertyOp27
 70
     1
102
RTVSPropertyOp28
 70
     1
102
RTVSPropertyOp29
 70
     1
102
RTVSPropertyOp30
 70
     1
102
RTVSPropertyOp31
 70
     1
102
RTVSPropertyOp32
 70
     1
102
RTVSPropertyOp33
 70
     1
102
RTVSPropertyOp34
 70
     1
102
RTVSPropertyOp35
 70
     1
102
RTVSPropertyOp36
 70
     1
102
RTVSPropertyOp37
 70
     1
102
RTVSPropertyOp38
 70
     1
102
RTVSPropertyOp39
 70
     1
102
RTVSPropertyOp40
 70
     1
102
RTVSPropertyOp41
 70
     1
102
RTVSPropertyOp42
 70
     1
102
RTVSPropertyOp43
 70
     1
102
RTVSPropertyOp44
 70
     1
102
RTVSPropertyOp45
 70
     1
102
RTVSPropertyOp46
 70
     1
102
RTVSPropertyOp47
 70
     1
102
RTVSPropertyOp48
 70
     1
102
RTVSPropertyOp49
 70
     1
102
RTVSPropertyOp50
 70
     1
102
RTVSPropertyOp51
 70
     0
102
RTVSPropertyOp52
 70
     0
102
RTVSPropertyOp53
 70
     1
102
RTVSPropertyOp54
 70
     1
102
RTVSPropertyOp55
 70
     1
102
RTVSPropertyOp56
 70
     1
102
RTVSPropertyOp57
 70
     1
102
RTVSPropertyOp58
 70
     1
102
RTVSPropertyOp59
 70
     1
102
RTVSPropertyOp60
 70
     1
102
RTVSPropertyOp61
 70
     1
102
RTVSPropertyOp62
 70
     1
  0
XRECORD
  5
132A
102
{ACAD_REACTORS
330
1329
102
}
330
1329
100
AcDbXrecord
280
     1
102
RTVSPost2010Prop28
280
     0
102
RTVSPost2010PropOp28
 70
     1
102
RTVSPost2010Prop29
280
     1
102
RTVSPost2010PropOp29
 70
     1
102
RTVSPost2010Prop30
280
     1
102
RTVSPost2010PropOp30
 70
     1
102
RTVSPost2010Prop31
280
     0
102
RTVSPost2010PropOp31
 70
     1
102
RTVSPost2010Prop32
280
     0
102
RTVSPost2010PropOp32
 70
     1
102
RTVSPost2010Prop33
280
     0
102
RTVSPost2010PropOp33
 70
     1
102
RTVSPost2010Prop34
280
     0
102
RTVSPost2010PropOp34
 70
     1
102
RTVSPost2010Prop35
280
     0
102
RTVSPost2010PropOp35
 70
     1
102
RTVSPost2010Prop36
280
     0
102
RTVSPost2010PropOp36
 70
     1
102
RTVSPost2010Prop37
 90
       50
102
RTVSPost2010PropOp37
 70
     1
102
RTVSPost2010Prop38
140
0.0
102
RTVSPost2010PropOp38
 70
     1
102
RTVSPost2010Prop39
140
1.0
102
RTVSPost2010PropOp39
 70
     1
102
RTVSPost2010Prop40
 90
        0
102
RTVSPost2010PropOp40
 70
     1
102
RTVSPost2010Prop41ColorIndex
 90
       18
102
RTVSPost2010Prop41ColorRGB
 90
        0
102
RTVSPost2010PropOp41
 70
     1
102
RTVSPost2010Prop42
 90
       50
102
RTVSPost2010PropOp42
 70
     1
102
RTVSPost2010Prop43
 90
        3
102
RTVSPost2010PropOp43
 70
     1
102
RTVSPost2010Prop44ColorIndex
 90
        5
102
RTVSPost2010Prop44ColorRGB
 90
      255
102
RTVSPost2010PropOp44
 70
     1
102
RTVSPost2010Prop45
280
     0
102
RTVSPost2010PropOp45
 70
     1
102
RTVSPost2010Prop46
 90
       50
102
RTVSPost2010PropOp46
 70
     1
102
RTVSPost2010Prop47
 90
       50
102
RTVSPost2010PropOp47
 70
     1
102
RTVSPost2010Prop48
 90
       50
102
RTVSPost2010PropOp48
 70
     1
102
RTVSPost2010Prop49
280
     0
102
RTVSPost2010PropOp49
 70
     1
102
RTVSPost2010Prop50
 90
       50
102
RTVSPost2010PropOp50
 70
     1
102
RTVSPost2010Prop51ColorIndex
 90
      256
102
RTVSPost2010Prop51ColorRGB
 90
-16777216
102
RTVSPost2010PropOp51
 70
     0
102
RTVSPost2010Prop52
140
1.0
102
RTVSPost2010PropOp52
 70
     0
102
RTVSPost2010Prop53
 90
        0
102
RTVSPost2010PropOp53
 70
     1
102
RTVSPost2010Prop54
  1
strokes_ogs.tif
102
RTVSPost2010PropOp54
 70
     1
102
RTVSPost2010Prop55
280
     0
102
RTVSPost2010PropOp55
 70
     1
102
RTVSPost2010Prop56
140
1.0
102
RTVSPost2010PropOp56
 70
     1
102
RTVSPost2010Prop57
140
1.0
102
RTVSPost2010PropOp57
 70
     1
102
RTVSPropertyOp0
 70
     1
102
RTVSPropertyOp1
 70
     1
102
RTVSPropertyOp2
 70
     1
102
RTVSPropertyOp3
 70
     1
102
RTVSPropertyOp4
 70
     1
102
RTVSPropertyOp5
 70
     1
102
RTVSPropertyOp6
 70
     1
102
RTVSPropertyOp7
 70
     1
102
RTVSPropertyOp8
 70
     1
102
RTVSPropertyOp9
 70
     1
102
RTVSPropertyOp10
 70
     1
102
RTVSPropertyOp11
 70
     1
102
RTVSPropertyOp12
 70
     1
102
RTVSPropertyOp13
 70
     1
102
RTVSPropertyOp14
 70
     1
102
RTVSPropertyOp15
 70
     1
102
RTVSPropertyOp16
 70
     1
102
RTVSPropertyOp17
 70
     1
102
RTVSPropertyOp18
 70
     1
102
RTVSPropertyOp19
 70
     1
102
RTVSPropertyOp20
 70
     1
102
RTVSPropertyOp21
 70
     1
102
RTVSPropertyOp22
 70
     1
102
RTVSPropertyOp23
 70
     1
102
RTVSPropertyOp24
 70
     1
102
RTVSPropertyOp25
 70
     1
102
RTVSPropertyOp26
 70
     1
102
RTVSPropertyOp27
 70
     1
102
RTVSPropertyOp28
 70
     1
102
RTVSPropertyOp29
 70
     1
102
RTVSPropertyOp30
 70
     1
102
RTVSPropertyOp31
 70
     1
102
RTVSPropertyOp32
 70
     1
102
RTVSPropertyOp33
 70
     1
102
RTVSPropertyOp34
 70
     1
102
RTVSPropertyOp35
 70
     1
102
RTVSPropertyOp36
 70
     1
102
RTVSPropertyOp37
 70
     1
102
RTVSPropertyOp38
 70
     1
102
RTVSPropertyOp39
 70
     1
102
RTVSPropertyOp40
 70
     1
102
RTVSPropertyOp41
 70
     1
102
RTVSPropertyOp42
 70
     1
102
RTVSPropertyOp43
 70
     1
102
RTVSPropertyOp44
 70
     1
102
RTVSPropertyOp45
 70
     1
102
RTVSPropertyOp46
 70
     1
102
RTVSPropertyOp47
 70
     1
102
RTVSPropertyOp48
 70
     1
102
RTVSPropertyOp49
 70
     1
102
RTVSPropertyOp50
 70
     1
102
RTVSPropertyOp51
 70
     0
102
RTVSPropertyOp52
 70
     0
102
RTVSPropertyOp53
 70
     1
102
RTVSPropertyOp54
 70
     1
102
RTVSPropertyOp55
 70
     1
102
RTVSPropertyOp56
 70
     1
102
RTVSPropertyOp57
 70
     1
102
RTVSPropertyOp58
 70
     1
102
RTVSPropertyOp59
 70
     1
102
RTVSPropertyOp60
 70
     1
102
RTVSPropertyOp61
 70
     1
102
RTVSPropertyOp62
 70
     1
  0
XRECORD
  5
1330
102
{ACAD_REACTORS
330
132F
102
}
330
132F
100
AcDbXrecord
280
     1
102
RTVSPost2010Prop28
280
     0
102
RTVSPost2010PropOp28
 70
     1
102
RTVSPost2010Prop29
280
     1
102
RTVSPost2010PropOp29
 70
     1
102
RTVSPost2010Prop30
280
     1
102
RTVSPost2010PropOp30
 70
     1
102
RTVSPost2010Prop31
280
     0
102
RTVSPost2010PropOp31
 70
     1
102
RTVSPost2010Prop32
280
     0
102
RTVSPost2010PropOp32
 70
     1
102
RTVSPost2010Prop33
280
     0
102
RTVSPost2010PropOp33
 70
     1
102
RTVSPost2010Prop34
280
     0
102
RTVSPost2010PropOp34
 70
     1
102
RTVSPost2010Prop35
280
     0
102
RTVSPost2010PropOp35
 70
     1
102
RTVSPost2010Prop36
280
     0
102
RTVSPost2010PropOp36
 70
     1
102
RTVSPost2010Prop37
 90
       50
102
RTVSPost2010PropOp37
 70
     1
102
RTVSPost2010Prop38
140
0.0
102
RTVSPost2010PropOp38
 70
     1
102
RTVSPost2010Prop39
140
1.0
102
RTVSPost2010PropOp39
 70
     1
102
RTVSPost2010Prop40
 90
        0
102
RTVSPost2010PropOp40
 70
     1
102
RTVSPost2010Prop41ColorIndex
 90
       18
102
RTVSPost2010Prop41ColorRGB
 90
        0
102
RTVSPost2010PropOp41
 70
     1
102
RTVSPost2010Prop42
 90
       50
102
RTVSPost2010PropOp42
 70
     1
102
RTVSPost2010Prop43
 90
        3
102
RTVSPost2010PropOp43
 70
     1
102
RTVSPost2010Prop44ColorIndex
 90
        5
102
RTVSPost2010Prop44ColorRGB
 90
      255
102
RTVSPost2010PropOp44
 70
     1
102
RTVSPost2010Prop45
280
     0
102
RTVSPost2010PropOp45
 70
     1
102
RTVSPost2010Prop46
 90
       50
102
RTVSPost2010PropOp46
 70
     1
102
RTVSPost2010Prop47
 90
       50
102
RTVSPost2010PropOp47
 70
     1
102
RTVSPost2010Prop48
 90
       50
102
RTVSPost2010PropOp48
 70
     1
102
RTVSPost2010Prop49
280
     0
102
RTVSPost2010PropOp49
 70
     1
102
RTVSPost2010Prop50
 90
       50
102
RTVSPost2010PropOp50
 70
     1
102
RTVSPost2010Prop51ColorIndex
 90
      256
102
RTVSPost2010Prop51ColorRGB
 90
-16777216
102
RTVSPost2010PropOp51
 70
     0
102
RTVSPost2010Prop52
140
1.0
102
RTVSPost2010PropOp52
 70
     0
102
RTVSPost2010Prop53
 90
        0
102
RTVSPost2010PropOp53
 70
     1
102
RTVSPost2010Prop54
  1
strokes_ogs.tif
102
RTVSPost2010PropOp54
 70
     1
102
RTVSPost2010Prop55
280
     0
102
RTVSPost2010PropOp55
 70
     1
102
RTVSPost2010Prop56
140
1.0
102
RTVSPost2010PropOp56
 70
     1
102
RTVSPost2010Prop57
140
1.0
102
RTVSPost2010PropOp57
 70
     1
102
RTVSPropertyOp0
 70
     1
102
RTVSPropertyOp1
 70
     1
102
RTVSPropertyOp2
 70
     1
102
RTVSPropertyOp3
 70
     1
102
RTVSPropertyOp4
 70
     1
102
RTVSPropertyOp5
 70
     1
102
RTVSPropertyOp6
 70
     1
102
RTVSPropertyOp7
 70
     1
102
RTVSPropertyOp8
 70
     1
102
RTVSPropertyOp9
 70
     1
102
RTVSPropertyOp10
 70
     1
102
RTVSPropertyOp11
 70
     1
102
RTVSPropertyOp12
 70
     1
102
RTVSPropertyOp13
 70
     1
102
RTVSPropertyOp14
 70
     1
102
RTVSPropertyOp15
 70
     1
102
RTVSPropertyOp16
 70
     1
102
RTVSPropertyOp17
 70
     1
102
RTVSPropertyOp18
 70
     1
102
RTVSPropertyOp19
 70
     1
102
RTVSPropertyOp20
 70
     1
102
RTVSPropertyOp21
 70
     1
102
RTVSPropertyOp22
 70
     1
102
RTVSPropertyOp23
 70
     1
102
RTVSPropertyOp24
 70
     1
102
RTVSPropertyOp25
 70
     1
102
RTVSPropertyOp26
 70
     1
102
RTVSPropertyOp27
 70
     1
102
RTVSPropertyOp28
 70
     1
102
RTVSPropertyOp29
 70
     1
102
RTVSPropertyOp30
 70
     1
102
RTVSPropertyOp31
 70
     1
102
RTVSPropertyOp32
 70
     1
102
RTVSPropertyOp33
 70
     1
102
RTVSPropertyOp34
 70
     1
102
RTVSPropertyOp35
 70
     1
102
RTVSPropertyOp36
 70
     1
102
RTVSPropertyOp37
 70
     1
102
RTVSPropertyOp38
 70
     1
102
RTVSPropertyOp39
 70
     1
102
RTVSPropertyOp40
 70
     1
102
RTVSPropertyOp41
 70
     1
102
RTVSPropertyOp42
 70
     1
102
RTVSPropertyOp43
 70
     1
102
RTVSPropertyOp44
 70
     1
102
RTVSPropertyOp45
 70
     1
102
RTVSPropertyOp46
 70
     1
102
RTVSPropertyOp47
 70
     1
102
RTVSPropertyOp48
 70
     1
102
RTVSPropertyOp49
 70
     1
102
RTVSPropertyOp50
 70
     1
102
RTVSPropertyOp51
 70
     0
102
RTVSPropertyOp52
 70
     0
102
RTVSPropertyOp53
 70
     1
102
RTVSPropertyOp54
 70
     1
102
RTVSPropertyOp55
 70
     1
102
RTVSPropertyOp56
 70
     1
102
RTVSPropertyOp57
 70
     1
102
RTVSPropertyOp58
 70
     1
102
RTVSPropertyOp59
 70
     1
102
RTVSPropertyOp60
 70
     1
102
RTVSPropertyOp61
 70
     1
102
RTVSPropertyOp62
 70
     1
  0
XRECORD
  5
1344
102
{ACAD_REACTORS
330
1343
102
}
330
1343
100
AcDbXrecord
280
     1
102
RTVSPost2010Prop28
280
     0
102
RTVSPost2010PropOp28
 70
     0
102
RTVSPost2010Prop29
280
     1
102
RTVSPost2010PropOp29
 70
     0
102
RTVSPost2010Prop30
280
     1
102
RTVSPost2010PropOp30
 70
     0
102
RTVSPost2010Prop31
280
     0
102
RTVSPost2010PropOp31
 70
     0
102
RTVSPost2010Prop32
280
     0
102
RTVSPost2010PropOp32
 70
     0
102
RTVSPost2010Prop33
280
     0
102
RTVSPost2010PropOp33
 70
     0
102
RTVSPost2010Prop34
280
     0
102
RTVSPost2010PropOp34
 70
     0
102
RTVSPost2010Prop35
280
     0
102
RTVSPost2010PropOp35
 70
     0
102
RTVSPost2010Prop36
280
     0
102
RTVSPost2010PropOp36
 70
     0
102
RTVSPost2010Prop37
 90
       50
102
RTVSPost2010PropOp37
 70
     0
102
RTVSPost2010Prop38
140
0.0
102
RTVSPost2010PropOp38
 70
     0
102
RTVSPost2010Prop39
140
1.0
102
RTVSPost2010PropOp39
 70
     0
102
RTVSPost2010Prop40
 90
        0
102
RTVSPost2010PropOp40
 70
     0
102
RTVSPost2010Prop41ColorIndex
 90
       18
102
RTVSPost2010Prop41ColorRGB
 90
        0
102
RTVSPost2010PropOp41
 70
     0
102
RTVSPost2010Prop42
 90
       50
102
RTVSPost2010PropOp42
 70
     0
102
RTVSPost2010Prop43
 90
        3
102
RTVSPost2010PropOp43
 70
     0
102
RTVSPost2010Prop44ColorIndex
 90
        5
102
RTVSPost2010Prop44ColorRGB
 90
      255
102
RTVSPost2010PropOp44
 70
     0
102
RTVSPost2010Prop45
280
     0
102
RTVSPost2010PropOp45
 70
     0
102
RTVSPost2010Prop46
 90
       50
102
RTVSPost2010PropOp46
 70
     0
102
RTVSPost2010Prop47
 90
       50
102
RTVSPost2010PropOp47
 70
     0
102
RTVSPost2010Prop48
 90
       50
102
RTVSPost2010PropOp48
 70
     0
102
RTVSPost2010Prop49
280
     0
102
RTVSPost2010PropOp49
 70
     0
102
RTVSPost2010Prop50
 90
       50
102
RTVSPost2010PropOp50
 70
     0
102
RTVSPost2010Prop51ColorIndex
 90
      256
102
RTVSPost2010Prop51ColorRGB
 90
-16777216
102
RTVSPost2010PropOp51
 70
     0
102
RTVSPost2010Prop52
140
1.0
102
RTVSPost2010PropOp52
 70
     0
102
RTVSPost2010Prop53
 90
        0
102
RTVSPost2010PropOp53
 70
     0
102
RTVSPost2010Prop54
  1
strokes_ogs.tif
102
RTVSPost2010PropOp54
 70
     0
102
RTVSPost2010Prop55
280
     0
102
RTVSPost2010PropOp55
 70
     0
102
RTVSPost2010Prop56
140
1.0
102
RTVSPost2010PropOp56
 70
     0
102
RTVSPost2010Prop57
140
1.0
102
RTVSPost2010PropOp57
 70
     0
102
RTVSPropertyOp0
 70
     0
102
RTVSPropertyOp1
 70
     0
102
RTVSPropertyOp2
 70
     0
102
RTVSPropertyOp3
 70
     0
102
RTVSPropertyOp4
 70
     0
102
RTVSPropertyOp5
 70
     0
102
RTVSPropertyOp6
 70
     0
102
RTVSPropertyOp7
 70
     0
102
RTVSPropertyOp8
 70
     0
102
RTVSPropertyOp9
 70
     0
102
RTVSPropertyOp10
 70
     0
102
RTVSPropertyOp11
 70
     0
102
RTVSPropertyOp12
 70
     0
102
RTVSPropertyOp13
 70
     0
102
RTVSPropertyOp14
 70
     2
102
RTVSPropertyOp15
 70
     0
102
RTVSPropertyOp16
 70
     0
102
RTVSPropertyOp17
 70
     0
102
RTVSPropertyOp18
 70
     0
102
RTVSPropertyOp19
 70
     0
102
RTVSPropertyOp20
 70
     0
102
RTVSPropertyOp21
 70
     0
102
RTVSPropertyOp22
 70
     0
102
RTVSPropertyOp23
 70
     0
102
RTVSPropertyOp24
 70
     0
102
RTVSPropertyOp25
 70
     0
102
RTVSPropertyOp26
 70
     0
102
RTVSPropertyOp27
 70
     0
102
RTVSPropertyOp28
 70
     0
102
RTVSPropertyOp29
 70
     0
102
RTVSPropertyOp30
 70
     0
102
RTVSPropertyOp31
 70
     0
102
RTVSPropertyOp32
 70
     0
102
RTVSPropertyOp33
 70
     0
102
RTVSPropertyOp34
 70
     0
102
RTVSPropertyOp35
 70
     0
102
RTVSPropertyOp36
 70
     0
102
RTVSPropertyOp37
 70
     0
102
RTVSPropertyOp38
 70
     0
102
RTVSPropertyOp39
 70
     0
102
RTVSPropertyOp40
 70
     0
102
RTVSPropertyOp41
 70
     0
102
RTVSPropertyOp42
 70
     0
102
RTVSPropertyOp43
 70
     0
102
RTVSPropertyOp44
 70
     0
102
RTVSPropertyOp45
 70
     0
102
RTVSPropertyOp46
 70
     0
102
RTVSPropertyOp47
 70
     0
102
RTVSPropertyOp48
 70
     0
102
RTVSPropertyOp49
 70
     0
102
RTVSPropertyOp50
 70
     0
102
RTVSPropertyOp51
 70
     0
102
RTVSPropertyOp52
 70
     0
102
RTVSPropertyOp53
 70
     0
102
RTVSPropertyOp54
 70
     0
102
RTVSPropertyOp55
 70
     0
102
RTVSPropertyOp56
 70
     0
102
RTVSPropertyOp57
 70
     0
102
RTVSPropertyOp58
 70
     1
102
RTVSPropertyOp59
 70
     1
102
RTVSPropertyOp60
 70
     1
102
RTVSPropertyOp61
 70
     1
102
RTVSPropertyOp62
 70
     1
  0
XRECORD
  5
133E
102
{ACAD_REACTORS
330
133D
102
}
330
133D
100
AcDbXrecord
280
     1
102
RTVSPost2010Prop28
280
     0
102
RTVSPost2010PropOp28
 70
     1
102
RTVSPost2010Prop29
280
     1
102
RTVSPost2010PropOp29
 70
     1
102
RTVSPost2010Prop30
280
     1
102
RTVSPost2010PropOp30
 70
     1
102
RTVSPost2010Prop31
280
     0
102
RTVSPost2010PropOp31
 70
     1
102
RTVSPost2010Prop32
280
     0
102
RTVSPost2010PropOp32
 70
     1
102
RTVSPost2010Prop33
280
     0
102
RTVSPost2010PropOp33
 70
     1
102
RTVSPost2010Prop34
280
     0
102
RTVSPost2010PropOp34
 70
     1
102
RTVSPost2010Prop35
280
     0
102
RTVSPost2010PropOp35
 70
     1
102
RTVSPost2010Prop36
280
     0
102
RTVSPost2010PropOp36
 70
     1
102
RTVSPost2010Prop37
 90
       50
102
RTVSPost2010PropOp37
 70
     1
102
RTVSPost2010Prop38
140
0.0
102
RTVSPost2010PropOp38
 70
     1
102
RTVSPost2010Prop39
140
1.0
102
RTVSPost2010PropOp39
 70
     1
102
RTVSPost2010Prop40
 90
        0
102
RTVSPost2010PropOp40
 70
     1
102
RTVSPost2010Prop41ColorIndex
 90
       18
102
RTVSPost2010Prop41ColorRGB
 90
        0
102
RTVSPost2010PropOp41
 70
     1
102
RTVSPost2010Prop42
 90
       50
102
RTVSPost2010PropOp42
 70
     1
102
RTVSPost2010Prop43
 90
        3
102
RTVSPost2010PropOp43
 70
     1
102
RTVSPost2010Prop44ColorIndex
 90
        5
102
RTVSPost2010Prop44ColorRGB
 90
      255
102
RTVSPost2010PropOp44
 70
     1
102
RTVSPost2010Prop45
280
     0
102
RTVSPost2010PropOp45
 70
     1
102
RTVSPost2010Prop46
 90
       50
102
RTVSPost2010PropOp46
 70
     1
102
RTVSPost2010Prop47
 90
       50
102
RTVSPost2010PropOp47
 70
     1
102
RTVSPost2010Prop48
 90
       50
102
RTVSPost2010PropOp48
 70
     1
102
RTVSPost2010Prop49
280
     0
102
RTVSPost2010PropOp49
 70
     1
102
RTVSPost2010Prop50
 90
       50
102
RTVSPost2010PropOp50
 70
     1
102
RTVSPost2010Prop51ColorIndex
 90
      256
102
RTVSPost2010Prop51ColorRGB
 90
-16777216
102
RTVSPost2010PropOp51
 70
     0
102
RTVSPost2010Prop52
140
1.0
102
RTVSPost2010PropOp52
 70
     0
102
RTVSPost2010Prop53
 90
        0
102
RTVSPost2010PropOp53
 70
     1
102
RTVSPost2010Prop54
  1
strokes_ogs.tif
102
RTVSPost2010PropOp54
 70
     1
102
RTVSPost2010Prop55
280
     0
102
RTVSPost2010PropOp55
 70
     1
102
RTVSPost2010Prop56
140
1.0
102
RTVSPost2010PropOp56
 70
     1
102
RTVSPost2010Prop57
140
1.0
102
RTVSPost2010PropOp57
 70
     1
102
RTVSPropertyOp0
 70
     1
102
RTVSPropertyOp1
 70
     1
102
RTVSPropertyOp2
 70
     1
102
RTVSPropertyOp3
 70
     1
102
RTVSPropertyOp4
 70
     1
102
RTVSPropertyOp5
 70
     1
102
RTVSPropertyOp6
 70
     1
102
RTVSPropertyOp7
 70
     1
102
RTVSPropertyOp8
 70
     1
102
RTVSPropertyOp9
 70
     1
102
RTVSPropertyOp10
 70
     1
102
RTVSPropertyOp11
 70
     1
102
RTVSPropertyOp12
 70
     1
102
RTVSPropertyOp13
 70
     1
102
RTVSPropertyOp14
 70
     1
102
RTVSPropertyOp15
 70
     1
102
RTVSPropertyOp16
 70
     1
102
RTVSPropertyOp17
 70
     1
102
RTVSPropertyOp18
 70
     1
102
RTVSPropertyOp19
 70
     1
102
RTVSPropertyOp20
 70
     1
102
RTVSPropertyOp21
 70
     1
102
RTVSPropertyOp22
 70
     1
102
RTVSPropertyOp23
 70
     1
102
RTVSPropertyOp24
 70
     1
102
RTVSPropertyOp25
 70
     1
102
RTVSPropertyOp26
 70
     1
102
RTVSPropertyOp27
 70
     1
102
RTVSPropertyOp28
 70
     1
102
RTVSPropertyOp29
 70
     1
102
RTVSPropertyOp30
 70
     1
102
RTVSPropertyOp31
 70
     1
102
RTVSPropertyOp32
 70
     1
102
RTVSPropertyOp33
 70
     1
102
RTVSPropertyOp34
 70
     1
102
RTVSPropertyOp35
 70
     1
102
RTVSPropertyOp36
 70
     1
102
RTVSPropertyOp37
 70
     1
102
RTVSPropertyOp38
 70
     1
102
RTVSPropertyOp39
 70
     1
102
RTVSPropertyOp40
 70
     1
102
RTVSPropertyOp41
 70
     1
102
RTVSPropertyOp42
 70
     1
102
RTVSPropertyOp43
 70
     1
102
RTVSPropertyOp44
 70
     1
102
RTVSPropertyOp45
 70
     1
102
RTVSPropertyOp46
 70
     1
102
RTVSPropertyOp47
 70
     1
102
RTVSPropertyOp48
 70
     1
102
RTVSPropertyOp49
 70
     1
102
RTVSPropertyOp50
 70
     1
102
RTVSPropertyOp51
 70
     0
102
RTVSPropertyOp52
 70
     0
102
RTVSPropertyOp53
 70
     1
102
RTVSPropertyOp54
 70
     1
102
RTVSPropertyOp55
 70
     1
102
RTVSPropertyOp56
 70
     1
102
RTVSPropertyOp57
 70
     1
102
RTVSPropertyOp58
 70
     1
102
RTVSPropertyOp59
 70
     1
102
RTVSPropertyOp60
 70
     1
102
RTVSPropertyOp61
 70
     1
102
RTVSPropertyOp62
 70
     1
  0
XRECORD
  5
1346
102
{ACAD_REACTORS
330
1345
102
}
330
1345
100
AcDbXrecord
280
     1
102
RTVSPost2010Prop28
280
     0
102
RTVSPost2010PropOp28
 70
     0
102
RTVSPost2010Prop29
280
     1
102
RTVSPost2010PropOp29
 70
     0
102
RTVSPost2010Prop30
280
     1
102
RTVSPost2010PropOp30
 70
     0
102
RTVSPost2010Prop31
280
     0
102
RTVSPost2010PropOp31
 70
     0
102
RTVSPost2010Prop32
280
     0
102
RTVSPost2010PropOp32
 70
     0
102
RTVSPost2010Prop33
280
     0
102
RTVSPost2010PropOp33
 70
     0
102
RTVSPost2010Prop34
280
     0
102
RTVSPost2010PropOp34
 70
     0
102
RTVSPost2010Prop35
280
     0
102
RTVSPost2010PropOp35
 70
     0
102
RTVSPost2010Prop36
280
     0
102
RTVSPost2010PropOp36
 70
     0
102
RTVSPost2010Prop37
 90
       50
102
RTVSPost2010PropOp37
 70
     0
102
RTVSPost2010Prop38
140
0.0
102
RTVSPost2010PropOp38
 70
     0
102
RTVSPost2010Prop39
140
1.0
102
RTVSPost2010PropOp39
 70
     0
102
RTVSPost2010Prop40
 90
        0
102
RTVSPost2010PropOp40
 70
     0
102
RTVSPost2010Prop41ColorIndex
 90
       18
102
RTVSPost2010Prop41ColorRGB
 90
        0
102
RTVSPost2010PropOp41
 70
     0
102
RTVSPost2010Prop42
 90
       50
102
RTVSPost2010PropOp42
 70
     0
102
RTVSPost2010Prop43
 90
        3
102
RTVSPost2010PropOp43
 70
     0
102
RTVSPost2010Prop44ColorIndex
 90
        5
102
RTVSPost2010Prop44ColorRGB
 90
      255
102
RTVSPost2010PropOp44
 70
     0
102
RTVSPost2010Prop45
280
     0
102
RTVSPost2010PropOp45
 70
     0
102
RTVSPost2010Prop46
 90
       50
102
RTVSPost2010PropOp46
 70
     0
102
RTVSPost2010Prop47
 90
       50
102
RTVSPost2010PropOp47
 70
     0
102
RTVSPost2010Prop48
 90
       50
102
RTVSPost2010PropOp48
 70
     0
102
RTVSPost2010Prop49
280
     0
102
RTVSPost2010PropOp49
 70
     0
102
RTVSPost2010Prop50
 90
       50
102
RTVSPost2010PropOp50
 70
     0
102
RTVSPost2010Prop51ColorIndex
 90
      256
102
RTVSPost2010Prop51ColorRGB
 90
-16777216
102
RTVSPost2010PropOp51
 70
     0
102
RTVSPost2010Prop52
140
1.0
102
RTVSPost2010PropOp52
 70
     0
102
RTVSPost2010Prop53
 90
        0
102
RTVSPost2010PropOp53
 70
     0
102
RTVSPost2010Prop54
  1
strokes_ogs.tif
102
RTVSPost2010PropOp54
 70
     0
102
RTVSPost2010Prop55
280
     0
102
RTVSPost2010PropOp55
 70
     0
102
RTVSPost2010Prop56
140
1.0
102
RTVSPost2010PropOp56
 70
     0
102
RTVSPost2010Prop57
140
1.0
102
RTVSPost2010PropOp57
 70
     0
102
RTVSPropertyOp0
 70
     0
102
RTVSPropertyOp1
 70
     0
102
RTVSPropertyOp2
 70
     0
102
RTVSPropertyOp3
 70
     0
102
RTVSPropertyOp4
 70
     0
102
RTVSPropertyOp5
 70
     0
102
RTVSPropertyOp6
 70
     0
102
RTVSPropertyOp7
 70
     0
102
RTVSPropertyOp8
 70
     0
102
RTVSPropertyOp9
 70
     0
102
RTVSPropertyOp10
 70
     0
102
RTVSPropertyOp11
 70
     0
102
RTVSPropertyOp12
 70
     0
102
RTVSPropertyOp13
 70
     0
102
RTVSPropertyOp14
 70
     2
102
RTVSPropertyOp15
 70
     0
102
RTVSPropertyOp16
 70
     0
102
RTVSPropertyOp17
 70
     0
102
RTVSPropertyOp18
 70
     0
102
RTVSPropertyOp19
 70
     0
102
RTVSPropertyOp20
 70
     0
102
RTVSPropertyOp21
 70
     0
102
RTVSPropertyOp22
 70
     0
102
RTVSPropertyOp23
 70
     0
102
RTVSPropertyOp24
 70
     0
102
RTVSPropertyOp25
 70
     0
102
RTVSPropertyOp26
 70
     0
102
RTVSPropertyOp27
 70
     0
102
RTVSPropertyOp28
 70
     0
102
RTVSPropertyOp29
 70
     0
102
RTVSPropertyOp30
 70
     0
102
RTVSPropertyOp31
 70
     0
102
RTVSPropertyOp32
 70
     0
102
RTVSPropertyOp33
 70
     0
102
RTVSPropertyOp34
 70
     0
102
RTVSPropertyOp35
 70
     0
102
RTVSPropertyOp36
 70
     0
102
RTVSPropertyOp37
 70
     0
102
RTVSPropertyOp38
 70
     0
102
RTVSPropertyOp39
 70
     0
102
RTVSPropertyOp40
 70
     0
102
RTVSPropertyOp41
 70
     0
102
RTVSPropertyOp42
 70
     0
102
RTVSPropertyOp43
 70
     0
102
RTVSPropertyOp44
 70
     0
102
RTVSPropertyOp45
 70
     0
102
RTVSPropertyOp46
 70
     0
102
RTVSPropertyOp47
 70
     0
102
RTVSPropertyOp48
 70
     0
102
RTVSPropertyOp49
 70
     0
102
RTVSPropertyOp50
 70
     0
102
RTVSPropertyOp51
 70
     0
102
RTVSPropertyOp52
 70
     0
102
RTVSPropertyOp53
 70
     0
102
RTVSPropertyOp54
 70
     0
102
RTVSPropertyOp55
 70
     0
102
RTVSPropertyOp56
 70
     0
102
RTVSPropertyOp57
 70
     0
102
RTVSPropertyOp58
 70
     1
102
RTVSPropertyOp59
 70
     1
102
RTVSPropertyOp60
 70
     1
102
RTVSPropertyOp61
 70
     1
102
RTVSPropertyOp62
 70
     1
  0
XRECORD
  5
1334
102
{ACAD_REACTORS
330
1333
102
}
330
1333
100
AcDbXrecord
280
     1
102
RTVSPost2010Prop28
280
     0
102
RTVSPost2010PropOp28
 70
     1
102
RTVSPost2010Prop29
280
     1
102
RTVSPost2010PropOp29
 70
     1
102
RTVSPost2010Prop30
280
     1
102
RTVSPost2010PropOp30
 70
     1
102
RTVSPost2010Prop31
280
     0
102
RTVSPost2010PropOp31
 70
     1
102
RTVSPost2010Prop32
280
     0
102
RTVSPost2010PropOp32
 70
     1
102
RTVSPost2010Prop33
280
     0
102
RTVSPost2010PropOp33
 70
     1
102
RTVSPost2010Prop34
280
     0
102
RTVSPost2010PropOp34
 70
     1
102
RTVSPost2010Prop35
280
     0
102
RTVSPost2010PropOp35
 70
     1
102
RTVSPost2010Prop36
280
     0
102
RTVSPost2010PropOp36
 70
     1
102
RTVSPost2010Prop37
 90
       50
102
RTVSPost2010PropOp37
 70
     1
102
RTVSPost2010Prop38
140
0.0
102
RTVSPost2010PropOp38
 70
     1
102
RTVSPost2010Prop39
140
1.0
102
RTVSPost2010PropOp39
 70
     1
102
RTVSPost2010Prop40
 90
        0
102
RTVSPost2010PropOp40
 70
     1
102
RTVSPost2010Prop41ColorIndex
 90
       18
102
RTVSPost2010Prop41ColorRGB
 90
        0
102
RTVSPost2010PropOp41
 70
     1
102
RTVSPost2010Prop42
 90
       50
102
RTVSPost2010PropOp42
 70
     1
102
RTVSPost2010Prop43
 90
        3
102
RTVSPost2010PropOp43
 70
     1
102
RTVSPost2010Prop44ColorIndex
 90
        5
102
RTVSPost2010Prop44ColorRGB
 90
      255
102
RTVSPost2010PropOp44
 70
     1
102
RTVSPost2010Prop45
280
     0
102
RTVSPost2010PropOp45
 70
     1
102
RTVSPost2010Prop46
 90
       50
102
RTVSPost2010PropOp46
 70
     1
102
RTVSPost2010Prop47
 90
       50
102
RTVSPost2010PropOp47
 70
     1
102
RTVSPost2010Prop48
 90
       50
102
RTVSPost2010PropOp48
 70
     1
102
RTVSPost2010Prop49
280
     0
102
RTVSPost2010PropOp49
 70
     1
102
RTVSPost2010Prop50
 90
       50
102
RTVSPost2010PropOp50
 70
     1
102
RTVSPost2010Prop51ColorIndex
 90
      256
102
RTVSPost2010Prop51ColorRGB
 90
-16777216
102
RTVSPost2010PropOp51
 70
     0
102
RTVSPost2010Prop52
140
1.0
102
RTVSPost2010PropOp52
 70
     0
102
RTVSPost2010Prop53
 90
        0
102
RTVSPost2010PropOp53
 70
     1
102
RTVSPost2010Prop54
  1
strokes_ogs.tif
102
RTVSPost2010PropOp54
 70
     1
102
RTVSPost2010Prop55
280
     0
102
RTVSPost2010PropOp55
 70
     1
102
RTVSPost2010Prop56
140
1.0
102
RTVSPost2010PropOp56
 70
     1
102
RTVSPost2010Prop57
140
1.0
102
RTVSPost2010PropOp57
 70
     1
102
RTVSPropertyOp0
 70
     1
102
RTVSPropertyOp1
 70
     1
102
RTVSPropertyOp2
 70
     1
102
RTVSPropertyOp3
 70
     1
102
RTVSPropertyOp4
 70
     1
102
RTVSPropertyOp5
 70
     1
102
RTVSPropertyOp6
 70
     1
102
RTVSPropertyOp7
 70
     1
102
RTVSPropertyOp8
 70
     1
102
RTVSPropertyOp9
 70
     1
102
RTVSPropertyOp10
 70
     1
102
RTVSPropertyOp11
 70
     1
102
RTVSPropertyOp12
 70
     1
102
RTVSPropertyOp13
 70
     1
102
RTVSPropertyOp14
 70
     1
102
RTVSPropertyOp15
 70
     1
102
RTVSPropertyOp16
 70
     1
102
RTVSPropertyOp17
 70
     1
102
RTVSPropertyOp18
 70
     1
102
RTVSPropertyOp19
 70
     1
102
RTVSPropertyOp20
 70
     1
102
RTVSPropertyOp21
 70
     1
102
RTVSPropertyOp22
 70
     1
102
RTVSPropertyOp23
 70
     1
102
RTVSPropertyOp24
 70
     1
102
RTVSPropertyOp25
 70
     1
102
RTVSPropertyOp26
 70
     1
102
RTVSPropertyOp27
 70
     1
102
RTVSPropertyOp28
 70
     1
102
RTVSPropertyOp29
 70
     1
102
RTVSPropertyOp30
 70
     1
102
RTVSPropertyOp31
 70
     1
102
RTVSPropertyOp32
 70
     1
102
RTVSPropertyOp33
 70
     1
102
RTVSPropertyOp34
 70
     1
102
RTVSPropertyOp35
 70
     1
102
RTVSPropertyOp36
 70
     1
102
RTVSPropertyOp37
 70
     1
102
RTVSPropertyOp38
 70
     1
102
RTVSPropertyOp39
 70
     1
102
RTVSPropertyOp40
 70
     1
102
RTVSPropertyOp41
 70
     1
102
RTVSPropertyOp42
 70
     1
102
RTVSPropertyOp43
 70
     1
102
RTVSPropertyOp44
 70
     1
102
RTVSPropertyOp45
 70
     1
102
RTVSPropertyOp46
 70
     1
102
RTVSPropertyOp47
 70
     1
102
RTVSPropertyOp48
 70
     1
102
RTVSPropertyOp49
 70
     1
102
RTVSPropertyOp50
 70
     1
102
RTVSPropertyOp51
 70
     0
102
RTVSPropertyOp52
 70
     0
102
RTVSPropertyOp53
 70
     1
102
RTVSPropertyOp54
 70
     1
102
RTVSPropertyOp55
 70
     1
102
RTVSPropertyOp56
 70
     1
102
RTVSPropertyOp57
 70
     1
102
RTVSPropertyOp58
 70
     1
102
RTVSPropertyOp59
 70
     1
102
RTVSPropertyOp60
 70
     1
102
RTVSPropertyOp61
 70
     1
102
RTVSPropertyOp62
 70
     1
  0
XRECORD
  5
1352
102
{ACAD_REACTORS
330
1351
102
}
330
1351
100
AcDbXrecord
280
     1
102
RTVSPost2010Prop28
280
     0
102
RTVSPost2010PropOp28
 70
     1
102
RTVSPost2010Prop29
280
     1
102
RTVSPost2010PropOp29
 70
     1
102
RTVSPost2010Prop30
280
     1
102
RTVSPost2010PropOp30
 70
     1
102
RTVSPost2010Prop31
280
     0
102
RTVSPost2010PropOp31
 70
     1
102
RTVSPost2010Prop32
280
     0
102
RTVSPost2010PropOp32
 70
     1
102
RTVSPost2010Prop33
280
     0
102
RTVSPost2010PropOp33
 70
     1
102
RTVSPost2010Prop34
280
     0
102
RTVSPost2010PropOp34
 70
     1
102
RTVSPost2010Prop35
280
     0
102
RTVSPost2010PropOp35
 70
     1
102
RTVSPost2010Prop36
280
     0
102
RTVSPost2010PropOp36
 70
     1
102
RTVSPost2010Prop37
 90
       50
102
RTVSPost2010PropOp37
 70
     1
102
RTVSPost2010Prop38
140
0.0
102
RTVSPost2010PropOp38
 70
     1
102
RTVSPost2010Prop39
140
1.0
102
RTVSPost2010PropOp39
 70
     1
102
RTVSPost2010Prop40
 90
        0
102
RTVSPost2010PropOp40
 70
     1
102
RTVSPost2010Prop41ColorIndex
 90
       18
102
RTVSPost2010Prop41ColorRGB
 90
        0
102
RTVSPost2010PropOp41
 70
     1
102
RTVSPost2010Prop42
 90
       50
102
RTVSPost2010PropOp42
 70
     1
102
RTVSPost2010Prop43
 90
        3
102
RTVSPost2010PropOp43
 70
     1
102
RTVSPost2010Prop44ColorIndex
 90
        5
102
RTVSPost2010Prop44ColorRGB
 90
      255
102
RTVSPost2010PropOp44
 70
     1
102
RTVSPost2010Prop45
280
     0
102
RTVSPost2010PropOp45
 70
     1
102
RTVSPost2010Prop46
 90
       50
102
RTVSPost2010PropOp46
 70
     1
102
RTVSPost2010Prop47
 90
       50
102
RTVSPost2010PropOp47
 70
     1
102
RTVSPost2010Prop48
 90
       50
102
RTVSPost2010PropOp48
 70
     1
102
RTVSPost2010Prop49
280
     0
102
RTVSPost2010PropOp49
 70
     1
102
RTVSPost2010Prop50
 90
       50
102
RTVSPost2010PropOp50
 70
     1
102
RTVSPost2010Prop51ColorIndex
 90
      256
102
RTVSPost2010Prop51ColorRGB
 90
-16777216
102
RTVSPost2010PropOp51
 70
     0
102
RTVSPost2010Prop52
140
1.0
102
RTVSPost2010PropOp52
 70
     0
102
RTVSPost2010Prop53
 90
        0
102
RTVSPost2010PropOp53
 70
     1
102
RTVSPost2010Prop54
  1
strokes_ogs.tif
102
RTVSPost2010PropOp54
 70
     1
102
RTVSPost2010Prop55
280
     0
102
RTVSPost2010PropOp55
 70
     1
102
RTVSPost2010Prop56
140
1.0
102
RTVSPost2010PropOp56
 70
     1
102
RTVSPost2010Prop57
140
1.0
102
RTVSPost2010PropOp57
 70
     1
102
RTVSPropertyOp0
 70
     1
102
RTVSPropertyOp1
 70
     1
102
RTVSPropertyOp2
 70
     1
102
RTVSPropertyOp3
 70
     1
102
RTVSPropertyOp4
 70
     1
102
RTVSPropertyOp5
 70
     1
102
RTVSPropertyOp6
 70
     1
102
RTVSPropertyOp7
 70
     1
102
RTVSPropertyOp8
 70
     1
102
RTVSPropertyOp9
 70
     1
102
RTVSPropertyOp10
 70
     1
102
RTVSPropertyOp11
 70
     1
102
RTVSPropertyOp12
 70
     1
102
RTVSPropertyOp13
 70
     1
102
RTVSPropertyOp14
 70
     1
102
RTVSPropertyOp15
 70
     1
102
RTVSPropertyOp16
 70
     1
102
RTVSPropertyOp17
 70
     1
102
RTVSPropertyOp18
 70
     1
102
RTVSPropertyOp19
 70
     1
102
RTVSPropertyOp20
 70
     1
102
RTVSPropertyOp21
 70
     1
102
RTVSPropertyOp22
 70
     1
102
RTVSPropertyOp23
 70
     1
102
RTVSPropertyOp24
 70
     1
102
RTVSPropertyOp25
 70
     1
102
RTVSPropertyOp26
 70
     1
102
RTVSPropertyOp27
 70
     1
102
RTVSPropertyOp28
 70
     1
102
RTVSPropertyOp29
 70
     1
102
RTVSPropertyOp30
 70
     1
102
RTVSPropertyOp31
 70
     1
102
RTVSPropertyOp32
 70
     1
102
RTVSPropertyOp33
 70
     1
102
RTVSPropertyOp34
 70
     1
102
RTVSPropertyOp35
 70
     1
102
RTVSPropertyOp36
 70
     1
102
RTVSPropertyOp37
 70
     1
102
RTVSPropertyOp38
 70
     1
102
RTVSPropertyOp39
 70
     1
102
RTVSPropertyOp40
 70
     1
102
RTVSPropertyOp41
 70
     1
102
RTVSPropertyOp42
 70
     1
102
RTVSPropertyOp43
 70
     1
102
RTVSPropertyOp44
 70
     1
102
RTVSPropertyOp45
 70
     1
102
RTVSPropertyOp46
 70
     1
102
RTVSPropertyOp47
 70
     1
102
RTVSPropertyOp48
 70
     1
102
RTVSPropertyOp49
 70
     1
102
RTVSPropertyOp50
 70
     1
102
RTVSPropertyOp51
 70
     0
102
RTVSPropertyOp52
 70
     0
102
RTVSPropertyOp53
 70
     1
102
RTVSPropertyOp54
 70
     1
102
RTVSPropertyOp55
 70
     1
102
RTVSPropertyOp56
 70
     1
102
RTVSPropertyOp57
 70
     1
102
RTVSPropertyOp58
 70
     1
102
RTVSPropertyOp59
 70
     1
102
RTVSPropertyOp60
 70
     1
102
RTVSPropertyOp61
 70
     1
102
RTVSPropertyOp62
 70
     1
  0
XRECORD
  5
1350
102
{ACAD_REACTORS
330
134F
102
}
330
134F
100
AcDbXrecord
280
     1
102
RTVSPost2010Prop28
280
     0
102
RTVSPost2010PropOp28
 70
     1
102
RTVSPost2010Prop29
280
     1
102
RTVSPost2010PropOp29
 70
     1
102
RTVSPost2010Prop30
280
     1
102
RTVSPost2010PropOp30
 70
     1
102
RTVSPost2010Prop31
280
     0
102
RTVSPost2010PropOp31
 70
     1
102
RTVSPost2010Prop32
280
     0
102
RTVSPost2010PropOp32
 70
     1
102
RTVSPost2010Prop33
280
     0
102
RTVSPost2010PropOp33
 70
     1
102
RTVSPost2010Prop34
280
     0
102
RTVSPost2010PropOp34
 70
     1
102
RTVSPost2010Prop35
280
     0
102
RTVSPost2010PropOp35
 70
     1
102
RTVSPost2010Prop36
280
     0
102
RTVSPost2010PropOp36
 70
     1
102
RTVSPost2010Prop37
 90
       50
102
RTVSPost2010PropOp37
 70
     1
102
RTVSPost2010Prop38
140
0.0
102
RTVSPost2010PropOp38
 70
     1
102
RTVSPost2010Prop39
140
1.0
102
RTVSPost2010PropOp39
 70
     1
102
RTVSPost2010Prop40
 90
        0
102
RTVSPost2010PropOp40
 70
     1
102
RTVSPost2010Prop41ColorIndex
 90
       18
102
RTVSPost2010Prop41ColorRGB
 90
        0
102
RTVSPost2010PropOp41
 70
     1
102
RTVSPost2010Prop42
 90
       50
102
RTVSPost2010PropOp42
 70
     1
102
RTVSPost2010Prop43
 90
        3
102
RTVSPost2010PropOp43
 70
     1
102
RTVSPost2010Prop44ColorIndex
 90
        5
102
RTVSPost2010Prop44ColorRGB
 90
      255
102
RTVSPost2010PropOp44
 70
     1
102
RTVSPost2010Prop45
280
     0
102
RTVSPost2010PropOp45
 70
     1
102
RTVSPost2010Prop46
 90
       50
102
RTVSPost2010PropOp46
 70
     1
102
RTVSPost2010Prop47
 90
       50
102
RTVSPost2010PropOp47
 70
     1
102
RTVSPost2010Prop48
 90
       50
102
RTVSPost2010PropOp48
 70
     1
102
RTVSPost2010Prop49
280
     0
102
RTVSPost2010PropOp49
 70
     1
102
RTVSPost2010Prop50
 90
       50
102
RTVSPost2010PropOp50
 70
     1
102
RTVSPost2010Prop51ColorIndex
 90
      256
102
RTVSPost2010Prop51ColorRGB
 90
-16777216
102
RTVSPost2010PropOp51
 70
     0
102
RTVSPost2010Prop52
140
1.0
102
RTVSPost2010PropOp52
 70
     0
102
RTVSPost2010Prop53
 90
        0
102
RTVSPost2010PropOp53
 70
     1
102
RTVSPost2010Prop54
  1
strokes_ogs.tif
102
RTVSPost2010PropOp54
 70
     1
102
RTVSPost2010Prop55
280
     0
102
RTVSPost2010PropOp55
 70
     1
102
RTVSPost2010Prop56
140
1.0
102
RTVSPost2010PropOp56
 70
     1
102
RTVSPost2010Prop57
140
1.0
102
RTVSPost2010PropOp57
 70
     1
102
RTVSPropertyOp0
 70
     1
102
RTVSPropertyOp1
 70
     1
102
RTVSPropertyOp2
 70
     1
102
RTVSPropertyOp3
 70
     1
102
RTVSPropertyOp4
 70
     1
102
RTVSPropertyOp5
 70
     1
102
RTVSPropertyOp6
 70
     1
102
RTVSPropertyOp7
 70
     1
102
RTVSPropertyOp8
 70
     1
102
RTVSPropertyOp9
 70
     1
102
RTVSPropertyOp10
 70
     1
102
RTVSPropertyOp11
 70
     1
102
RTVSPropertyOp12
 70
     1
102
RTVSPropertyOp13
 70
     1
102
RTVSPropertyOp14
 70
     1
102
RTVSPropertyOp15
 70
     1
102
RTVSPropertyOp16
 70
     1
102
RTVSPropertyOp17
 70
     1
102
RTVSPropertyOp18
 70
     1
102
RTVSPropertyOp19
 70
     1
102
RTVSPropertyOp20
 70
     1
102
RTVSPropertyOp21
 70
     1
102
RTVSPropertyOp22
 70
     1
102
RTVSPropertyOp23
 70
     1
102
RTVSPropertyOp24
 70
     1
102
RTVSPropertyOp25
 70
     1
102
RTVSPropertyOp26
 70
     1
102
RTVSPropertyOp27
 70
     1
102
RTVSPropertyOp28
 70
     1
102
RTVSPropertyOp29
 70
     1
102
RTVSPropertyOp30
 70
     1
102
RTVSPropertyOp31
 70
     1
102
RTVSPropertyOp32
 70
     1
102
RTVSPropertyOp33
 70
     1
102
RTVSPropertyOp34
 70
     1
102
RTVSPropertyOp35
 70
     1
102
RTVSPropertyOp36
 70
     1
102
RTVSPropertyOp37
 70
     1
102
RTVSPropertyOp38
 70
     1
102
RTVSPropertyOp39
 70
     1
102
RTVSPropertyOp40
 70
     1
102
RTVSPropertyOp41
 70
     1
102
RTVSPropertyOp42
 70
     1
102
RTVSPropertyOp43
 70
     1
102
RTVSPropertyOp44
 70
     1
102
RTVSPropertyOp45
 70
     1
102
RTVSPropertyOp46
 70
     1
102
RTVSPropertyOp47
 70
     1
102
RTVSPropertyOp48
 70
     1
102
RTVSPropertyOp49
 70
     1
102
RTVSPropertyOp50
 70
     1
102
RTVSPropertyOp51
 70
     0
102
RTVSPropertyOp52
 70
     0
102
RTVSPropertyOp53
 70
     1
102
RTVSPropertyOp54
 70
     1
102
RTVSPropertyOp55
 70
     1
102
RTVSPropertyOp56
 70
     1
102
RTVSPropertyOp57
 70
     1
102
RTVSPropertyOp58
 70
     1
102
RTVSPropertyOp59
 70
     1
102
RTVSPropertyOp60
 70
     1
102
RTVSPropertyOp61
 70
     1
102
RTVSPropertyOp62
 70
     1
  0
XRECORD
  5
134A
102
{ACAD_REACTORS
330
1349
102
}
330
1349
100
AcDbXrecord
280
     1
102
RTVSPost2010Prop28
280
     0
102
RTVSPost2010PropOp28
 70
     1
102
RTVSPost2010Prop29
280
     1
102
RTVSPost2010PropOp29
 70
     1
102
RTVSPost2010Prop30
280
     1
102
RTVSPost2010PropOp30
 70
     1
102
RTVSPost2010Prop31
280
     0
102
RTVSPost2010PropOp31
 70
     1
102
RTVSPost2010Prop32
280
     0
102
RTVSPost2010PropOp32
 70
     1
102
RTVSPost2010Prop33
280
     0
102
RTVSPost2010PropOp33
 70
     1
102
RTVSPost2010Prop34
280
     0
102
RTVSPost2010PropOp34
 70
     1
102
RTVSPost2010Prop35
280
     0
102
RTVSPost2010PropOp35
 70
     1
102
RTVSPost2010Prop36
280
     0
102
RTVSPost2010PropOp36
 70
     1
102
RTVSPost2010Prop37
 90
       50
102
RTVSPost2010PropOp37
 70
     1
102
RTVSPost2010Prop38
140
0.0
102
RTVSPost2010PropOp38
 70
     1
102
RTVSPost2010Prop39
140
1.0
102
RTVSPost2010PropOp39
 70
     1
102
RTVSPost2010Prop40
 90
        0
102
RTVSPost2010PropOp40
 70
     1
102
RTVSPost2010Prop41ColorIndex
 90
       18
102
RTVSPost2010Prop41ColorRGB
 90
        0
102
RTVSPost2010PropOp41
 70
     1
102
RTVSPost2010Prop42
 90
       50
102
RTVSPost2010PropOp42
 70
     1
102
RTVSPost2010Prop43
 90
        3
102
RTVSPost2010PropOp43
 70
     1
102
RTVSPost2010Prop44ColorIndex
 90
        5
102
RTVSPost2010Prop44ColorRGB
 90
      255
102
RTVSPost2010PropOp44
 70
     1
102
RTVSPost2010Prop45
280
     0
102
RTVSPost2010PropOp45
 70
     1
102
RTVSPost2010Prop46
 90
       50
102
RTVSPost2010PropOp46
 70
     1
102
RTVSPost2010Prop47
 90
       50
102
RTVSPost2010PropOp47
 70
     1
102
RTVSPost2010Prop48
 90
       50
102
RTVSPost2010PropOp48
 70
     1
102
RTVSPost2010Prop49
280
     0
102
RTVSPost2010PropOp49
 70
     1
102
RTVSPost2010Prop50
 90
       50
102
RTVSPost2010PropOp50
 70
     1
102
RTVSPost2010Prop51ColorIndex
 90
      256
102
RTVSPost2010Prop51ColorRGB
 90
-16777216
102
RTVSPost2010PropOp51
 70
     0
102
RTVSPost2010Prop52
140
1.0
102
RTVSPost2010PropOp52
 70
     0
102
RTVSPost2010Prop53
 90
        0
102
RTVSPost2010PropOp53
 70
     1
102
RTVSPost2010Prop54
  1
strokes_ogs.tif
102
RTVSPost2010PropOp54
 70
     1
102
RTVSPost2010Prop55
280
     0
102
RTVSPost2010PropOp55
 70
     1
102
RTVSPost2010Prop56
140
1.0
102
RTVSPost2010PropOp56
 70
     1
102
RTVSPost2010Prop57
140
1.0
102
RTVSPost2010PropOp57
 70
     1
102
RTVSPropertyOp0
 70
     1
102
RTVSPropertyOp1
 70
     1
102
RTVSPropertyOp2
 70
     1
102
RTVSPropertyOp3
 70
     1
102
RTVSPropertyOp4
 70
     1
102
RTVSPropertyOp5
 70
     1
102
RTVSPropertyOp6
 70
     1
102
RTVSPropertyOp7
 70
     1
102
RTVSPropertyOp8
 70
     1
102
RTVSPropertyOp9
 70
     1
102
RTVSPropertyOp10
 70
     1
102
RTVSPropertyOp11
 70
     1
102
RTVSPropertyOp12
 70
     1
102
RTVSPropertyOp13
 70
     1
102
RTVSPropertyOp14
 70
     1
102
RTVSPropertyOp15
 70
     1
102
RTVSPropertyOp16
 70
     1
102
RTVSPropertyOp17
 70
     1
102
RTVSPropertyOp18
 70
     1
102
RTVSPropertyOp19
 70
     1
102
RTVSPropertyOp20
 70
     1
102
RTVSPropertyOp21
 70
     1
102
RTVSPropertyOp22
 70
     1
102
RTVSPropertyOp23
 70
     1
102
RTVSPropertyOp24
 70
     1
102
RTVSPropertyOp25
 70
     1
102
RTVSPropertyOp26
 70
     1
102
RTVSPropertyOp27
 70
     1
102
RTVSPropertyOp28
 70
     1
102
RTVSPropertyOp29
 70
     1
102
RTVSPropertyOp30
 70
     1
102
RTVSPropertyOp31
 70
     1
102
RTVSPropertyOp32
 70
     1
102
RTVSPropertyOp33
 70
     1
102
RTVSPropertyOp34
 70
     1
102
RTVSPropertyOp35
 70
     1
102
RTVSPropertyOp36
 70
     1
102
RTVSPropertyOp37
 70
     1
102
RTVSPropertyOp38
 70
     1
102
RTVSPropertyOp39
 70
     1
102
RTVSPropertyOp40
 70
     1
102
RTVSPropertyOp41
 70
     1
102
RTVSPropertyOp42
 70
     1
102
RTVSPropertyOp43
 70
     1
102
RTVSPropertyOp44
 70
     1
102
RTVSPropertyOp45
 70
     1
102
RTVSPropertyOp46
 70
     1
102
RTVSPropertyOp47
 70
     1
102
RTVSPropertyOp48
 70
     1
102
RTVSPropertyOp49
 70
     1
102
RTVSPropertyOp50
 70
     1
102
RTVSPropertyOp51
 70
     0
102
RTVSPropertyOp52
 70
     0
102
RTVSPropertyOp53
 70
     1
102
RTVSPropertyOp54
 70
     1
102
RTVSPropertyOp55
 70
     1
102
RTVSPropertyOp56
 70
     1
102
RTVSPropertyOp57
 70
     1
102
RTVSPropertyOp58
 70
     1
102
RTVSPropertyOp59
 70
     1
102
RTVSPropertyOp60
 70
     1
102
RTVSPropertyOp61
 70
     1
102
RTVSPropertyOp62
 70
     1
  0
XRECORD
  5
134C
102
{ACAD_REACTORS
330
134B
102
}
330
134B
100
AcDbXrecord
280
     1
102
RTVSPost2010Prop28
280
     0
102
RTVSPost2010PropOp28
 70
     1
102
RTVSPost2010Prop29
280
     1
102
RTVSPost2010PropOp29
 70
     1
102
RTVSPost2010Prop30
280
     1
102
RTVSPost2010PropOp30
 70
     1
102
RTVSPost2010Prop31
280
     0
102
RTVSPost2010PropOp31
 70
     1
102
RTVSPost2010Prop32
280
     0
102
RTVSPost2010PropOp32
 70
     1
102
RTVSPost2010Prop33
280
     0
102
RTVSPost2010PropOp33
 70
     1
102
RTVSPost2010Prop34
280
     0
102
RTVSPost2010PropOp34
 70
     1
102
RTVSPost2010Prop35
280
     0
102
RTVSPost2010PropOp35
 70
     1
102
RTVSPost2010Prop36
280
     0
102
RTVSPost2010PropOp36
 70
     1
102
RTVSPost2010Prop37
 90
       50
102
RTVSPost2010PropOp37
 70
     1
102
RTVSPost2010Prop38
140
0.0
102
RTVSPost2010PropOp38
 70
     1
102
RTVSPost2010Prop39
140
1.0
102
RTVSPost2010PropOp39
 70
     1
102
RTVSPost2010Prop40
 90
        0
102
RTVSPost2010PropOp40
 70
     1
102
RTVSPost2010Prop41ColorIndex
 90
       18
102
RTVSPost2010Prop41ColorRGB
 90
        0
102
RTVSPost2010PropOp41
 70
     1
102
RTVSPost2010Prop42
 90
       50
102
RTVSPost2010PropOp42
 70
     1
102
RTVSPost2010Prop43
 90
        3
102
RTVSPost2010PropOp43
 70
     1
102
RTVSPost2010Prop44ColorIndex
 90
        5
102
RTVSPost2010Prop44ColorRGB
 90
      255
102
RTVSPost2010PropOp44
 70
     1
102
RTVSPost2010Prop45
280
     0
102
RTVSPost2010PropOp45
 70
     1
102
RTVSPost2010Prop46
 90
       50
102
RTVSPost2010PropOp46
 70
     1
102
RTVSPost2010Prop47
 90
       50
102
RTVSPost2010PropOp47
 70
     1
102
RTVSPost2010Prop48
 90
       50
102
RTVSPost2010PropOp48
 70
     1
102
RTVSPost2010Prop49
280
     0
102
RTVSPost2010PropOp49
 70
     1
102
RTVSPost2010Prop50
 90
       50
102
RTVSPost2010PropOp50
 70
     1
102
RTVSPost2010Prop51ColorIndex
 90
      256
102
RTVSPost2010Prop51ColorRGB
 90
-16777216
102
RTVSPost2010PropOp51
 70
     0
102
RTVSPost2010Prop52
140
1.0
102
RTVSPost2010PropOp52
 70
     0
102
RTVSPost2010Prop53
 90
        0
102
RTVSPost2010PropOp53
 70
     1
102
RTVSPost2010Prop54
  1
strokes_ogs.tif
102
RTVSPost2010PropOp54
 70
     1
102
RTVSPost2010Prop55
280
     0
102
RTVSPost2010PropOp55
 70
     1
102
RTVSPost2010Prop56
140
1.0
102
RTVSPost2010PropOp56
 70
     1
102
RTVSPost2010Prop57
140
1.0
102
RTVSPost2010PropOp57
 70
     1
102
RTVSPropertyOp0
 70
     1
102
RTVSPropertyOp1
 70
     1
102
RTVSPropertyOp2
 70
     1
102
RTVSPropertyOp3
 70
     1
102
RTVSPropertyOp4
 70
     1
102
RTVSPropertyOp5
 70
     1
102
RTVSPropertyOp6
 70
     1
102
RTVSPropertyOp7
 70
     1
102
RTVSPropertyOp8
 70
     1
102
RTVSPropertyOp9
 70
     1
102
RTVSPropertyOp10
 70
     1
102
RTVSPropertyOp11
 70
     1
102
RTVSPropertyOp12
 70
     1
102
RTVSPropertyOp13
 70
     1
102
RTVSPropertyOp14
 70
     1
102
RTVSPropertyOp15
 70
     1
102
RTVSPropertyOp16
 70
     1
102
RTVSPropertyOp17
 70
     1
102
RTVSPropertyOp18
 70
     1
102
RTVSPropertyOp19
 70
     1
102
RTVSPropertyOp20
 70
     1
102
RTVSPropertyOp21
 70
     1
102
RTVSPropertyOp22
 70
     1
102
RTVSPropertyOp23
 70
     1
102
RTVSPropertyOp24
 70
     1
102
RTVSPropertyOp25
 70
     1
102
RTVSPropertyOp26
 70
     1
102
RTVSPropertyOp27
 70
     1
102
RTVSPropertyOp28
 70
     1
102
RTVSPropertyOp29
 70
     1
102
RTVSPropertyOp30
 70
     1
102
RTVSPropertyOp31
 70
     1
102
RTVSPropertyOp32
 70
     1
102
RTVSPropertyOp33
 70
     1
102
RTVSPropertyOp34
 70
     1
102
RTVSPropertyOp35
 70
     1
102
RTVSPropertyOp36
 70
     1
102
RTVSPropertyOp37
 70
     1
102
RTVSPropertyOp38
 70
     1
102
RTVSPropertyOp39
 70
     1
102
RTVSPropertyOp40
 70
     1
102
RTVSPropertyOp41
 70
     1
102
RTVSPropertyOp42
 70
     1
102
RTVSPropertyOp43
 70
     1
102
RTVSPropertyOp44
 70
     1
102
RTVSPropertyOp45
 70
     1
102
RTVSPropertyOp46
 70
     1
102
RTVSPropertyOp47
 70
     1
102
RTVSPropertyOp48
 70
     1
102
RTVSPropertyOp49
 70
     1
102
RTVSPropertyOp50
 70
     1
102
RTVSPropertyOp51
 70
     0
102
RTVSPropertyOp52
 70
     0
102
RTVSPropertyOp53
 70
     1
102
RTVSPropertyOp54
 70
     1
102
RTVSPropertyOp55
 70
     1
102
RTVSPropertyOp56
 70
     1
102
RTVSPropertyOp57
 70
     1
102
RTVSPropertyOp58
 70
     1
102
RTVSPropertyOp59
 70
     1
102
RTVSPropertyOp60
 70
     1
102
RTVSPropertyOp61
 70
     1
102
RTVSPropertyOp62
 70
     1
  0
XRECORD
  5
133C
102
{ACAD_REACTORS
330
133B
102
}
330
133B
100
AcDbXrecord
280
     1
102
RTVSPost2010Prop28
280
     0
102
RTVSPost2010PropOp28
 70
     1
102
RTVSPost2010Prop29
280
     1
102
RTVSPost2010PropOp29
 70
     1
102
RTVSPost2010Prop30
280
     1
102
RTVSPost2010PropOp30
 70
     1
102
RTVSPost2010Prop31
280
     0
102
RTVSPost2010PropOp31
 70
     1
102
RTVSPost2010Prop32
280
     0
102
RTVSPost2010PropOp32
 70
     1
102
RTVSPost2010Prop33
280
     0
102
RTVSPost2010PropOp33
 70
     1
102
RTVSPost2010Prop34
280
     0
102
RTVSPost2010PropOp34
 70
     1
102
RTVSPost2010Prop35
280
     0
102
RTVSPost2010PropOp35
 70
     1
102
RTVSPost2010Prop36
280
     0
102
RTVSPost2010PropOp36
 70
     1
102
RTVSPost2010Prop37
 90
       50
102
RTVSPost2010PropOp37
 70
     1
102
RTVSPost2010Prop38
140
0.0
102
RTVSPost2010PropOp38
 70
     1
102
RTVSPost2010Prop39
140
1.0
102
RTVSPost2010PropOp39
 70
     1
102
RTVSPost2010Prop40
 90
        0
102
RTVSPost2010PropOp40
 70
     1
102
RTVSPost2010Prop41ColorIndex
 90
       18
102
RTVSPost2010Prop41ColorRGB
 90
        0
102
RTVSPost2010PropOp41
 70
     1
102
RTVSPost2010Prop42
 90
       50
102
RTVSPost2010PropOp42
 70
     1
102
RTVSPost2010Prop43
 90
        3
102
RTVSPost2010PropOp43
 70
     1
102
RTVSPost2010Prop44ColorIndex
 90
        5
102
RTVSPost2010Prop44ColorRGB
 90
      255
102
RTVSPost2010PropOp44
 70
     1
102
RTVSPost2010Prop45
280
     0
102
RTVSPost2010PropOp45
 70
     1
102
RTVSPost2010Prop46
 90
       50
102
RTVSPost2010PropOp46
 70
     1
102
RTVSPost2010Prop47
 90
       50
102
RTVSPost2010PropOp47
 70
     1
102
RTVSPost2010Prop48
 90
       50
102
RTVSPost2010PropOp48
 70
     1
102
RTVSPost2010Prop49
280
     0
102
RTVSPost2010PropOp49
 70
     1
102
RTVSPost2010Prop50
 90
       50
102
RTVSPost2010PropOp50
 70
     1
102
RTVSPost2010Prop51ColorIndex
 90
      256
102
RTVSPost2010Prop51ColorRGB
 90
-16777216
102
RTVSPost2010PropOp51
 70
     0
102
RTVSPost2010Prop52
140
1.0
102
RTVSPost2010PropOp52
 70
     0
102
RTVSPost2010Prop53
 90
        0
102
RTVSPost2010PropOp53
 70
     1
102
RTVSPost2010Prop54
  1
strokes_ogs.tif
102
RTVSPost2010PropOp54
 70
     1
102
RTVSPost2010Prop55
280
     0
102
RTVSPost2010PropOp55
 70
     1
102
RTVSPost2010Prop56
140
1.0
102
RTVSPost2010PropOp56
 70
     1
102
RTVSPost2010Prop57
140
1.0
102
RTVSPost2010PropOp57
 70
     1
102
RTVSPropertyOp0
 70
     1
102
RTVSPropertyOp1
 70
     1
102
RTVSPropertyOp2
 70
     1
102
RTVSPropertyOp3
 70
     1
102
RTVSPropertyOp4
 70
     1
102
RTVSPropertyOp5
 70
     1
102
RTVSPropertyOp6
 70
     1
102
RTVSPropertyOp7
 70
     1
102
RTVSPropertyOp8
 70
     1
102
RTVSPropertyOp9
 70
     1
102
RTVSPropertyOp10
 70
     1
102
RTVSPropertyOp11
 70
     1
102
RTVSPropertyOp12
 70
     1
102
RTVSPropertyOp13
 70
     1
102
RTVSPropertyOp14
 70
     1
102
RTVSPropertyOp15
 70
     1
102
RTVSPropertyOp16
 70
     1
102
RTVSPropertyOp17
 70
     1
102
RTVSPropertyOp18
 70
     1
102
RTVSPropertyOp19
 70
     1
102
RTVSPropertyOp20
 70
     1
102
RTVSPropertyOp21
 70
     1
102
RTVSPropertyOp22
 70
     1
102
RTVSPropertyOp23
 70
     1
102
RTVSPropertyOp24
 70
     1
102
RTVSPropertyOp25
 70
     1
102
RTVSPropertyOp26
 70
     1
102
RTVSPropertyOp27
 70
     1
102
RTVSPropertyOp28
 70
     1
102
RTVSPropertyOp29
 70
     1
102
RTVSPropertyOp30
 70
     1
102
RTVSPropertyOp31
 70
     1
102
RTVSPropertyOp32
 70
     1
102
RTVSPropertyOp33
 70
     1
102
RTVSPropertyOp34
 70
     1
102
RTVSPropertyOp35
 70
     1
102
RTVSPropertyOp36
 70
     1
102
RTVSPropertyOp37
 70
     1
102
RTVSPropertyOp38
 70
     1
102
RTVSPropertyOp39
 70
     1
102
RTVSPropertyOp40
 70
     1
102
RTVSPropertyOp41
 70
     1
102
RTVSPropertyOp42
 70
     1
102
RTVSPropertyOp43
 70
     1
102
RTVSPropertyOp44
 70
     1
102
RTVSPropertyOp45
 70
     1
102
RTVSPropertyOp46
 70
     1
102
RTVSPropertyOp47
 70
     1
102
RTVSPropertyOp48
 70
     1
102
RTVSPropertyOp49
 70
     1
102
RTVSPropertyOp50
 70
     1
102
RTVSPropertyOp51
 70
     0
102
RTVSPropertyOp52
 70
     0
102
RTVSPropertyOp53
 70
     1
102
RTVSPropertyOp54
 70
     1
102
RTVSPropertyOp55
 70
     1
102
RTVSPropertyOp56
 70
     1
102
RTVSPropertyOp57
 70
     1
102
RTVSPropertyOp58
 70
     1
102
RTVSPropertyOp59
 70
     1
102
RTVSPropertyOp60
 70
     1
102
RTVSPropertyOp61
 70
     1
102
RTVSPropertyOp62
 70
     1
  0
XRECORD
  5
132E
102
{ACAD_REACTORS
330
132D
102
}
330
132D
100
AcDbXrecord
280
     1
102
RTVSPost2010Prop28
280
     0
102
RTVSPost2010PropOp28
 70
     1
102
RTVSPost2010Prop29
280
     1
102
RTVSPost2010PropOp29
 70
     1
102
RTVSPost2010Prop30
280
     1
102
RTVSPost2010PropOp30
 70
     1
102
RTVSPost2010Prop31
280
     0
102
RTVSPost2010PropOp31
 70
     1
102
RTVSPost2010Prop32
280
     0
102
RTVSPost2010PropOp32
 70
     1
102
RTVSPost2010Prop33
280
     0
102
RTVSPost2010PropOp33
 70
     1
102
RTVSPost2010Prop34
280
     0
102
RTVSPost2010PropOp34
 70
     1
102
RTVSPost2010Prop35
280
     0
102
RTVSPost2010PropOp35
 70
     1
102
RTVSPost2010Prop36
280
     0
102
RTVSPost2010PropOp36
 70
     1
102
RTVSPost2010Prop37
 90
       50
102
RTVSPost2010PropOp37
 70
     1
102
RTVSPost2010Prop38
140
0.0
102
RTVSPost2010PropOp38
 70
     1
102
RTVSPost2010Prop39
140
1.0
102
RTVSPost2010PropOp39
 70
     1
102
RTVSPost2010Prop40
 90
        0
102
RTVSPost2010PropOp40
 70
     1
102
RTVSPost2010Prop41ColorIndex
 90
       18
102
RTVSPost2010Prop41ColorRGB
 90
        0
102
RTVSPost2010PropOp41
 70
     1
102
RTVSPost2010Prop42
 90
       50
102
RTVSPost2010PropOp42
 70
     1
102
RTVSPost2010Prop43
 90
        3
102
RTVSPost2010PropOp43
 70
     1
102
RTVSPost2010Prop44ColorIndex
 90
        5
102
RTVSPost2010Prop44ColorRGB
 90
      255
102
RTVSPost2010PropOp44
 70
     1
102
RTVSPost2010Prop45
280
     0
102
RTVSPost2010PropOp45
 70
     1
102
RTVSPost2010Prop46
 90
       50
102
RTVSPost2010PropOp46
 70
     1
102
RTVSPost2010Prop47
 90
       50
102
RTVSPost2010PropOp47
 70
     1
102
RTVSPost2010Prop48
 90
       50
102
RTVSPost2010PropOp48
 70
     1
102
RTVSPost2010Prop49
280
     0
102
RTVSPost2010PropOp49
 70
     1
102
RTVSPost2010Prop50
 90
       50
102
RTVSPost2010PropOp50
 70
     1
102
RTVSPost2010Prop51ColorIndex
 90
      256
102
RTVSPost2010Prop51ColorRGB
 90
-16777216
102
RTVSPost2010PropOp51
 70
     0
102
RTVSPost2010Prop52
140
1.0
102
RTVSPost2010PropOp52
 70
     0
102
RTVSPost2010Prop53
 90
        0
102
RTVSPost2010PropOp53
 70
     1
102
RTVSPost2010Prop54
  1
strokes_ogs.tif
102
RTVSPost2010PropOp54
 70
     1
102
RTVSPost2010Prop55
280
     0
102
RTVSPost2010PropOp55
 70
     1
102
RTVSPost2010Prop56
140
1.0
102
RTVSPost2010PropOp56
 70
     1
102
RTVSPost2010Prop57
140
1.0
102
RTVSPost2010PropOp57
 70
     1
102
RTVSPropertyOp0
 70
     1
102
RTVSPropertyOp1
 70
     1
102
RTVSPropertyOp2
 70
     1
102
RTVSPropertyOp3
 70
     1
102
RTVSPropertyOp4
 70
     1
102
RTVSPropertyOp5
 70
     1
102
RTVSPropertyOp6
 70
     1
102
RTVSPropertyOp7
 70
     1
102
RTVSPropertyOp8
 70
     1
102
RTVSPropertyOp9
 70
     1
102
RTVSPropertyOp10
 70
     1
102
RTVSPropertyOp11
 70
     1
102
RTVSPropertyOp12
 70
     1
102
RTVSPropertyOp13
 70
     1
102
RTVSPropertyOp14
 70
     1
102
RTVSPropertyOp15
 70
     1
102
RTVSPropertyOp16
 70
     1
102
RTVSPropertyOp17
 70
     1
102
RTVSPropertyOp18
 70
     1
102
RTVSPropertyOp19
 70
     1
102
RTVSPropertyOp20
 70
     1
102
RTVSPropertyOp21
 70
     1
102
RTVSPropertyOp22
 70
     1
102
RTVSPropertyOp23
 70
     1
102
RTVSPropertyOp24
 70
     1
102
RTVSPropertyOp25
 70
     1
102
RTVSPropertyOp26
 70
     1
102
RTVSPropertyOp27
 70
     1
102
RTVSPropertyOp28
 70
     1
102
RTVSPropertyOp29
 70
     1
102
RTVSPropertyOp30
 70
     1
102
RTVSPropertyOp31
 70
     1
102
RTVSPropertyOp32
 70
     1
102
RTVSPropertyOp33
 70
     1
102
RTVSPropertyOp34
 70
     1
102
RTVSPropertyOp35
 70
     1
102
RTVSPropertyOp36
 70
     1
102
RTVSPropertyOp37
 70
     1
102
RTVSPropertyOp38
 70
     1
102
RTVSPropertyOp39
 70
     1
102
RTVSPropertyOp40
 70
     1
102
RTVSPropertyOp41
 70
     1
102
RTVSPropertyOp42
 70
     1
102
RTVSPropertyOp43
 70
     1
102
RTVSPropertyOp44
 70
     1
102
RTVSPropertyOp45
 70
     1
102
RTVSPropertyOp46
 70
     1
102
RTVSPropertyOp47
 70
     1
102
RTVSPropertyOp48
 70
     1
102
RTVSPropertyOp49
 70
     1
102
RTVSPropertyOp50
 70
     1
102
RTVSPropertyOp51
 70
     0
102
RTVSPropertyOp52
 70
     0
102
RTVSPropertyOp53
 70
     1
102
RTVSPropertyOp54
 70
     1
102
RTVSPropertyOp55
 70
     1
102
RTVSPropertyOp56
 70
     1
102
RTVSPropertyOp57
 70
     1
102
RTVSPropertyOp58
 70
     1
102
RTVSPropertyOp59
 70
     1
102
RTVSPropertyOp60
 70
     1
102
RTVSPropertyOp61
 70
     1
102
RTVSPropertyOp62
 70
     1
  0
XRECORD
  5
134E
102
{ACAD_REACTORS
330
134D
102
}
330
134D
100
AcDbXrecord
280
     1
102
RTVSPost2010Prop28
280
     0
102
RTVSPost2010PropOp28
 70
     1
102
RTVSPost2010Prop29
280
     1
102
RTVSPost2010PropOp29
 70
     1
102
RTVSPost2010Prop30
280
     1
102
RTVSPost2010PropOp30
 70
     1
102
RTVSPost2010Prop31
280
     0
102
RTVSPost2010PropOp31
 70
     1
102
RTVSPost2010Prop32
280
     0
102
RTVSPost2010PropOp32
 70
     1
102
RTVSPost2010Prop33
280
     0
102
RTVSPost2010PropOp33
 70
     1
102
RTVSPost2010Prop34
280
     0
102
RTVSPost2010PropOp34
 70
     1
102
RTVSPost2010Prop35
280
     0
102
RTVSPost2010PropOp35
 70
     1
102
RTVSPost2010Prop36
280
     0
102
RTVSPost2010PropOp36
 70
     1
102
RTVSPost2010Prop37
 90
       50
102
RTVSPost2010PropOp37
 70
     1
102
RTVSPost2010Prop38
140
0.0
102
RTVSPost2010PropOp38
 70
     1
102
RTVSPost2010Prop39
140
1.0
102
RTVSPost2010PropOp39
 70
     1
102
RTVSPost2010Prop40
 90
        0
102
RTVSPost2010PropOp40
 70
     1
102
RTVSPost2010Prop41ColorIndex
 90
       18
102
RTVSPost2010Prop41ColorRGB
 90
        0
102
RTVSPost2010PropOp41
 70
     1
102
RTVSPost2010Prop42
 90
       50
102
RTVSPost2010PropOp42
 70
     1
102
RTVSPost2010Prop43
 90
        3
102
RTVSPost2010PropOp43
 70
     1
102
RTVSPost2010Prop44ColorIndex
 90
        5
102
RTVSPost2010Prop44ColorRGB
 90
      255
102
RTVSPost2010PropOp44
 70
     1
102
RTVSPost2010Prop45
280
     0
102
RTVSPost2010PropOp45
 70
     1
102
RTVSPost2010Prop46
 90
       50
102
RTVSPost2010PropOp46
 70
     1
102
RTVSPost2010Prop47
 90
       50
102
RTVSPost2010PropOp47
 70
     1
102
RTVSPost2010Prop48
 90
       50
102
RTVSPost2010PropOp48
 70
     1
102
RTVSPost2010Prop49
280
     0
102
RTVSPost2010PropOp49
 70
     1
102
RTVSPost2010Prop50
 90
       50
102
RTVSPost2010PropOp50
 70
     1
102
RTVSPost2010Prop51ColorIndex
 90
      256
102
RTVSPost2010Prop51ColorRGB
 90
-16777216
102
RTVSPost2010PropOp51
 70
     0
102
RTVSPost2010Prop52
140
1.0
102
RTVSPost2010PropOp52
 70
     0
102
RTVSPost2010Prop53
 90
        0
102
RTVSPost2010PropOp53
 70
     1
102
RTVSPost2010Prop54
  1
strokes_ogs.tif
102
RTVSPost2010PropOp54
 70
     1
102
RTVSPost2010Prop55
280
     0
102
RTVSPost2010PropOp55
 70
     1
102
RTVSPost2010Prop56
140
1.0
102
RTVSPost2010PropOp56
 70
     1
102
RTVSPost2010Prop57
140
1.0
102
RTVSPost2010PropOp57
 70
     1
102
RTVSPropertyOp0
 70
     1
102
RTVSPropertyOp1
 70
     1
102
RTVSPropertyOp2
 70
     1
102
RTVSPropertyOp3
 70
     1
102
RTVSPropertyOp4
 70
     1
102
RTVSPropertyOp5
 70
     1
102
RTVSPropertyOp6
 70
     1
102
RTVSPropertyOp7
 70
     1
102
RTVSPropertyOp8
 70
     1
102
RTVSPropertyOp9
 70
     1
102
RTVSPropertyOp10
 70
     1
102
RTVSPropertyOp11
 70
     1
102
RTVSPropertyOp12
 70
     1
102
RTVSPropertyOp13
 70
     1
102
RTVSPropertyOp14
 70
     1
102
RTVSPropertyOp15
 70
     1
102
RTVSPropertyOp16
 70
     1
102
RTVSPropertyOp17
 70
     1
102
RTVSPropertyOp18
 70
     1
102
RTVSPropertyOp19
 70
     1
102
RTVSPropertyOp20
 70
     1
102
RTVSPropertyOp21
 70
     1
102
RTVSPropertyOp22
 70
     1
102
RTVSPropertyOp23
 70
     1
102
RTVSPropertyOp24
 70
     1
102
RTVSPropertyOp25
 70
     1
102
RTVSPropertyOp26
 70
     1
102
RTVSPropertyOp27
 70
     1
102
RTVSPropertyOp28
 70
     1
102
RTVSPropertyOp29
 70
     1
102
RTVSPropertyOp30
 70
     1
102
RTVSPropertyOp31
 70
     1
102
RTVSPropertyOp32
 70
     1
102
RTVSPropertyOp33
 70
     1
102
RTVSPropertyOp34
 70
     1
102
RTVSPropertyOp35
 70
     1
102
RTVSPropertyOp36
 70
     1
102
RTVSPropertyOp37
 70
     1
102
RTVSPropertyOp38
 70
     1
102
RTVSPropertyOp39
 70
     1
102
RTVSPropertyOp40
 70
     1
102
RTVSPropertyOp41
 70
     1
102
RTVSPropertyOp42
 70
     1
102
RTVSPropertyOp43
 70
     1
102
RTVSPropertyOp44
 70
     1
102
RTVSPropertyOp45
 70
     1
102
RTVSPropertyOp46
 70
     1
102
RTVSPropertyOp47
 70
     1
102
RTVSPropertyOp48
 70
     1
102
RTVSPropertyOp49
 70
     1
102
RTVSPropertyOp50
 70
     1
102
RTVSPropertyOp51
 70
     0
102
RTVSPropertyOp52
 70
     0
102
RTVSPropertyOp53
 70
     1
102
RTVSPropertyOp54
 70
     1
102
RTVSPropertyOp55
 70
     1
102
RTVSPropertyOp56
 70
     1
102
RTVSPropertyOp57
 70
     1
102
RTVSPropertyOp58
 70
     1
102
RTVSPropertyOp59
 70
     1
102
RTVSPropertyOp60
 70
     1
102
RTVSPropertyOp61
 70
     1
102
RTVSPropertyOp62
 70
     1
  0
ENDSEC
  0
EOF
